home | news | chart | store | advertise
BROWSE ARTIST :    0-9 A  B  C  D  E  F  G  H  I  J  K  L  M  N  O  P  Q  R  S  T  U  V  W  X  Y  Z 
Intro : (repeat several times)

e|----------------------------------------------------------|
B|----------------------------------------------------------|
G|--9/7/9---7/9---7/9/11/9/7-7------------------------------|
D|--xxxxx---xxx---xxxxxxxxxxxx------------------------------|
A|--7/5/7---5/7---5/7/9/7/5--5------------------------------|
E|----------------------------------------------------------|

Verse 1 : (BAR chords) D B G A [you can improvise this easily]

Part When Wah Pedal is used (repeat several times)

e|-------------------------------------------------------|
B|-------------------------------------------------------|
G|---7-7-7~--xxxx-7--------------------------------------|
D|---7-7-7~--xxxx-7--------------------------------------|
A|-------------------------------------------------------|
E|-------------------------------------------------------|
             oooo

Chorus 1 : (BAR chords) D E B A [you can improvise this easily]

After 1st chorus, repeat Intro once. Then repeat this Part

e|-------------------------------------------------------|
B|-------------------------------------------------------|
G|---7-7-7~--xxxx-7--------------------------------------|
D|---7-7-7~--xxxx-7--------------------------------------|
A|-------------------------------------------------------|
E|-------------------------------------------------------|
             oooo

along with that part play with these BAR chords (D B G A) twice.
Then you repeat the chorus (BAR chords) D E B A

SOLO : Play with the same chords as chorus. 

Repeat Chorus (BAR chords) D E B A

Outro :

e|-----------------17~----------15-14--------------------|
B|--15-15-14-15-14-----14-14-14------15-12~--------------|
G|-------------------------------------------------------|
D|-------------------------------------------------------|
A|-------------------------------------------------------|
E|-------------------------------------------------------|
                       ^  ^  ^

e|-------------------------------------------------------|
B|--15-15-14-15-15-14-12~--------------------------------|
G|-------------------------------------------------------|
D|-------------------------------------------------------|
A|-------------------------------------------------------|
E|-------------------------------------------------------|

e|-----------------17~----------15-14--------------------|
B|--15-15-14-15-14-----15-15p14-------15-12~-------------|
G|-------------------------------------------------------|
D|-------------------------------------------------------|
A|-------------------------------------------------------|
E|-------------------------------------------------------|


NOTE:

^ = Note that you cant hear properly
o = Wah Note

Ads

Ads

Ads

ADS