BROWSE ARTIST :    0-9 A  B  C  D  E  F  G  H  I  J  K  L  M  N  O  P  Q  R  S  T  U  V  W  X  Y  Z 
Ini tab di pake buat intronya yach......

E----------------------------------------|-10-10----------------------------|
B---------------------------------/12----|-------12-12----------------------|
G----/12----10-9-10-9-----9-----------12-|-------------12-12-10-/9-10-10/12-|
D----------------------12---12-----------|----------------------------------|
A----------------------------------------|----------------------------------|
E----------------------------------------|----------------------------------|


E----------------------------------------------------------------------|
B--------------------|-------------------------------------------------|
G--10-9-10-9----9----|----------------------------9-10-9----9-10-10/12-|
D------------12---12-|--------------12-12--10-10---------12------------|      
A--------------------|--12-12--10-10-----------------------------------|
E--------------------|-------------------------------------------------|


E--------------------------------|-10-10---------------------------------|
B-------------------------/12----|-------12-12---------------------------|
G---10-9-10-9-----9-----------12-|-------------12-12-10-/9-10-10/12------|
D--------------12---12-----------|---------------------------------------|    
A--------------------------------|---------------------------------------|
E--------------------------------|---------------------------------------|


E--------------------|----------------------------|
B--------------------|----------------------------|
G--10-9-10-9----9----|----------------------------|
D------------12---12-|-------------12-12--10-10---|                         
A--------------------|-12-12--10-10---------------|
E--------------------|----------------------------|


E--10-10-------------------10-10-------------------------------|
B--------12-12-------------------12-12-------------------------|
G--------------12-12--10/9-------------12-12--10/9-10-10/12----|
D--------------------------------------------------------------|            
A--------------------------------------------------------------|
E--------------------------------------------------------------|
 
AUTO SCROLL
Scroll Speed
-
+
Font Size
-
+

RELATED VIDEO

No video available :(
Loading...