home | news | chart | store | advertise
BROWSE ARTIST :    0-9 A  B  C  D  E  F  G  H  I  J  K  L  M  N  O  P  Q  R  S  T  U  V  W  X  Y  Z 
G|-------------------------------------------------------------------------------|
D|-------------------------------------------------------------------------------|
A|-0-0-10-0-10h12-0-10-0-7-0-8-8-7-5-7------------------10-0----0-10-10----10h12-|
E|-------------------------------------0-0-10-0-10h12-0------12---------12-------|

G|--------------------------------------------------------------------------|
D|-0-0-10-0-10h12-0-10-0-10p9-0-9p8-0-8p7-----------------------------------|
A|----------------------------------------0-10-0-10h12-0-10-0-7-0-8-8-7-5-7-|
E|--------------------------------------------------------------------------|x5

G|----------------------------------------------------------------------|
D|-0-0-10-0-10h12-0-10-0-10p9-0-9p8-0-8---------------------------------|
A|--------------------------------------0-0-0-0-0-0-0-0-0-0-0-0-0-0-0-0-|
E|----------------------------------------------------------------------|


Chorus 1

G|----5-3h5------5-3h5-------------------------|
D|--------------------------5-3h5------5-3h5---|
A|-3--------3--3-------3-----------------------|
E|-----------------------3--------3--3-------3-|

G|----7-5h7------7-5h7-------------------------|
D|--------------------------7-5h7------7-5h7---|
A|-5--------5--5-------5-----------------------|
E|-----------------------5--------5--5-------5-|

G|----5-3h5------5-3h5-------------------------|
D|-------------------------5-3h5-------5-3h5---|
A|-3--------3--3-------3-----------------------|
E|-----------------------3-------3--3--------3-|

G|----7-5h7------7-5h7---------------------------------------------|
D|----------------------------------------10--------10-10----10h12-|
A|-5--------5--5-------5-0-0-10-0-10h12-0----0-12-0-------12-------|
E|-----------------------------------------------------------------|


Chorus 2  (Pretty much the same as chorus 1 but it changes at the end)

G|----5-3h5------5-3h5-------------------------|
D|--------------------------5-3h5------5-3h5---|
A|-3--------3--3-------3-----------------------|
E|-----------------------3--------3--3-------3-|

G|----7-5h7------7-5h7-------------------------|
D|--------------------------7-5h7------7-5h7---|
A|-5--------5--5-------5-----------------------|
E|-----------------------5--------5--5-------5-|

G|----5-3h5------5-3h5-------------------------|
D|-------------------------5-3h5-------5-3h5---|
A|-3--------3--3-------3-----------------------|
E|-----------------------3-------3--3--------3-|

G|----7-5h7------7-5h7-------------------------------|
D|----------------------------------------------14{chord}-|
A|-5--------5--5-------5-0-7--0-5h7-0-0-0-0-0-0------|
E|---------------------------------------------------|


Breakdown

G|------------------------------------------|
D|------------------------------------------|
A|------------------------------------------|
E|-0-0-10-0-10h12-0-10-0-10p9-0-9p8-0-8p7-0-| x3

G|---------------------------------------|
D|---------------------------------------|
A|--------------10--------10-10----10h12-|
E|-10-0-10h12-0----0-12-0-------12-------|

Chorus 3

G|----5-3h5------5-3h5-------------------------|
D|--------------------------5-3h5------5-3h5---|
A|-3--------3--3-------3-----------------------|
E|-----------------------3--------3--3-------3-|

G|----7-5h7------7-5h7-------------------------|
D|--------------------------7-5h7------7-5h7---|
A|-5--------5--5-------5-----------------------|
E|-----------------------5--------5--5-------5-|

G|----5-3h5------5-3h5-------------------------|
D|-------------------------5-3h5-------5-3h5---|
A|-3--------3--3-------3-----------------------|
E|-----------------------3-------3--3--------3-|

G|----7-5h7------7-5h7-------------------------|
D|-------------------------7-5h7------7-5h7----|
A|-5--------5--5-------5-----------------------|
E|-----------------------5-------5--5--------5-|


G|----5-3h5------5-3h5-------------------------|
D|--------------------------5-3h5------5-3h5---|
A|-3--------3--3-------3-----------------------|
E|-----------------------3--------3--3-------3-|

G|----7-5h7------7-5h7-------------------------|
D|--------------------------7-5h7------7-5h7---|
A|-5--------5--5-------5-----------------------|
E|-----------------------5--------5--5-------5-|

G|----5-3h5------5-3h5-------------------------|
D|-------------------------5-3h5-------5-3h5---|
A|-3--------3--3-------3-----------------------|
E|-----------------------3-------3--3--------3-|

G|----7-5h7------7-5h7-------------------------------|
D|----------------------------------------------14{chord}-|
A|-5--------5--5-------5-0-7--0-5h7-0-0-0-0-0-0------|
E|---------------------------------------------------|

Breakdown 2

G|------------------------------------------|
D|------------------------------------------|
A|------------------------------------------|
E|-0-0-10-0-10h12-0-10-0-10p9-0-9p8-0-8p7-0-| x5

G|------------------------------------------|
D|------------------------------------------|
A|------------------------------------------|
E|-0-0-10-0-10h12-0-10-0-10p9-0-9p8-0-8p7{chord}-|

Ads

Ads

Ads

CHORDFRENZY STORE