home | news | chart | store | advertise
BROWSE ARTIST :    0-9 A  B  C  D  E  F  G  H  I  J  K  L  M  N  O  P  Q  R  S  T  U  V  W  X  Y  Z 
Verse fill:
e||--12~-------------------|--11~-------------------|-----------7~---12~---|--13~-------10~---------|
B||------------13~---------|------------13~---10~---|--9~------------------|------------------12~---|
G||------------------14~---|------------------------|----------------------|------------------------|
D||------------------------|------------------------|----------------------|------------------------|
A||------------------------|------------------------|----------------------|------------------------|
E||------------------------|------------------------|----------------------|------------------------|


Pre-chorus:
e||--------------------------|--------------------------|--------------------------|--------------------------|
B||--0--0--0--1--1--1--1--1--|--0--0--3--3--1--1--0--0--|--0--0--0--1--1--1--1--1--|--0--0--3--3--1--1--0--0--|
G||--2--2--2--2--2--2--2--2--|--0--0--0--0--0--0--0--0--|--2--2--2--2--2--2--2--2--|--0--0--0--0--0--0--0--0--|
D||--3--3--3--3--3--3--3--3--|--0--0--0--0--0--0--0--0--|--2--2--2--2--2--2--2--2--|--0--0--0--0--0--0--0--0--|
A||--------------------------|--------------------------|--------------------------|--------------------------|
E||--------------------------|--------------------------|--------------------------|--------------------------|

e||--------------------------|--------------------------|--------------------------|----------------------------------|
B||--0--0--0--1--1--1--1--1--|--0--0--3--3--1--1--0--0--|--0--0--0--1--1--1--1--1--|----------------------------------|
G||--2--2--2--2--2--2--2--2--|--0--0--0--0--0--0--0--0--|--2--2--2--2--2--2--2--2--|------------12--12--10--10--9--9--|
D||--3--3--3--3--3--3--3--3--|--0--0--0--0--0--0--0--0--|--2--2--2--2--2--2--2--2--|--10-10-10------------------------|
A||--------------------------|--------------------------|--------------------------|--10-10-10--10--10--8---8---7--7--|
E||--------------------------|--------------------------|--------------------------|--8--8--8-------------------------|


Chorus:
e||--------------------------|--------------------------|--------------------------|--------------------------------|
B||--------------------------|--------------------------|--------------------------|--------------------------------|
G||--2--2--2--2--2--2--2--2--|--4--4--4--4--4--4--4--4--|--5--5--5--5--5--5--5--5--|----------12--12--10--10--9--9--|
D||--3--3--3--3--3--3--3--3--|--5--5--5--5--5--5--5--5--|--7--7--7--7--7--7--7--7--|--10--10------------------------|
A||--3--3--3--3--3--3--3--3--|--5--5--5--5--5--5--5--5--|--7--7--7--7--7--7--7--7--|--10--10--10--10--8---8---7--7--|
E||--1--1--1--1--1--1--1--1--|--3--3--3--3--3--3--3--3--|--5--5--5--5--5--5--5--5--|--8---8-------------------------|

e||--------------------------|--------------------------|--------------------------|--------------------------|
B||--------------------------|--------------------------|--------------------------|--------------------------|
G||--2--2--2--2--2--2--2--2--|--4--4--4--4--4--4--4--4--|--5--5--5--5--5--5--5--5--|--------------------------|
D||--3--3--3--3--3--3--3--3--|--5--5--5--5--5--5--5--5--|--7--7--7--7--7--7--7--7--|--------------------------|
A||--3--3--3--3--3--3--3--3--|--5--5--5--5--5--5--5--5--|--7--7--7--7--7--7--7--7--|--------3-----------5-----|
E||--1--1--1--1--1--1--1--1--|--3--3--3--3--3--3--3--3--|--5--5--5--5--5--5--5--5--|--1--1-----1--3--3-----3--|


Bridge 1:
e||--------------------------------------------------------------------------------------------------|
B||--17-17-17-17-17-17-17-17-17-17-17-17-17-17-17-17/13-13-13-13-13-13-13-13/10-10-10-10-10-10-10-10/|
G||--------------------------------------------------------------------------------------------------|
D||--14-14-14-14-14-14-14-14-14-14-14-14-14-14-14-14/10-10-10-10-10-10-10-10/7--7--7--7--7--7--7--7/-|
A||--------------------------------------------------------------------------------------------------|
E||--------------------------------------------------------------------------------------------------|
                                                                                                   
e||--------------------------------------------------------------------------------------------------|
B||--16-16-16-16-16-16-16-16-16-16-16-16-16-16-16-16/13-13-13-13-13-13-13-13/10-10-10-10-10-10-10-10/|
G||--------------------------------------------------------------------------------------------------|
D||--13-13-13-13-13-13-13-13-13-13-13-13-13-13-13-13/10-10-10-10-10-10-10-10/7--7--7--7--7--7--7--7/-|
A||--------------------------------------------------------------------------------------------------|
E||--------------------------------------------------------------------------------------------------|
                                                                                   
e||----------------------------------------------------------------------------------|
B||--9-9-9-9-9-9-9-9-9-9-9-9-9-9-9-9/12-12-12-12-12-12-12-12/17-17-17-17-17-17-17-17/|
G||----------------------------------------------------------------------------------|
D||--6-6-6-6-6-6-6-6-6-6-6-6-6-6-6-6/9--9--9--9--9--9--9--9/-14-14-14-14-14-14-14-14/|
A||----------------------------------------------------------------------------------|
E||----------------------------------------------------------------------------------|
                                                                                                   
e||--------------------------------------------------------------------------------------------------|
B||--18-18-18-18-18-18-18-18-18-18-18-18-18-18-18-18/15-15-15-15-15-15-15-15/12-12-12-12-12-12-12-12/|
G||--------------------------------------------------------------------------------------------------|
D||--15-15-15-15-15-15-15-15-15-15-15-15-15-15-15-15/12-12-12-12-12-12-12-12/9--9--9--9--9--9--9--9/-|
A||--------------------------------------------------------------------------------------------------|
E||--------------------------------------------------------------------------------------------------|


Verse:
e||----------------------|----------------------|-----------------------|--------------------------|
B||----------------------|----------------------|-----------------------|--------------------------|
G||----------------------|----------------------|-----------------------|--------------------------|
D||----------------------|----------------------|-----------------------|--------------------------|
A||----------------------|----------------------|-----------------------|--------3-----------5-----|
E||--5--5--8--5----------|--7--7--5--7----------|--0--0--12--0----------|--1--1-----1--3--3-----3--|


Bridge 2:
e||--1----1--x-x-x-x-1--1--x-x-|----------x-x-x-x-------x-x-|
B||--3----3--x-x-x-x-3--3--x-x-|--1----1--x-x-x-x-1--1--x-x-|
G||--2----2--x-x-x-x-2--2--x-x-|--2----2--x-x-x-x-2--2--x-x-|
D||----------x-x-x-x-------x-x-|--2----2--x-x-x-x-2--2--x-x-|
A||----------------------------|----------------------------|
E||----------------------------|----------------------------|X3
                                                                                                           
e||-------0---0-------0-----|-------0---0-------0-----|
B||-------0---0-------0-----|-------0---0-------0-----|
G||-------1---1-------1-----|-------1---1-------1-----|
D||-------2---2-------2-----|-------2---2-------2-----|
A||--2----------2--2-----2--|--2----------2--2-----2--|
E||--0----------0--0-----0--|--0----------0--0-----0--|


Interlude (piano):
e||--12----------12----------12------|------11----------11----------11--|
B||----------13----------13----------|--13----------13----------13------|
G||------14----------14----------14--|----------14----------14----------|
D||----------------------------------|----------------------------------|
A||----------------------------------|----------------------------------|
E||----------------------------------|----------------------------------|
                                                                                                     
e||----------10----------10----------|--8----------8--10--------------|
B||------12----------12----------12--|-----10-------------12------12--|
G||--13----------13----------13------|---------10-------------12------|
D||----------------------------------|--------------------------------|
A||----------------------------------|--------------------------------|
E||----------------------------------|--------------------------------|


Outro
e||------------------------------------------------------------------|
B||--5-5-5-5-5-5-5-5-5-5-5-5-5-5-5-5-5-5-5-5-5-5-5-5-5-5-5-5-5-5-5-5-|
G||--9-9-9-9-9-9-9-9-9-9-9-9-9-9-9-9-9-9-9-9-9-9-9-9-9-9-9-9-9-9-9-9-|
D||------------------------------------------------------------------|
A||------------------------------------------------------------------|
E||------------------------------------------------------------------|
                                                                   
e||------------------------------------------------------------------|
B||--5-5-5-5-5-5-5-5-5-5-5-5-5-5-5-5-5-5-5-5-5-5-5-5-5-5-5-5-5-5-5-5-|
G||--8-8-8-8-8-8-8-8-8-8-8-8-8-8-8-8-8-8-8-8-8-8-8-8-8-8-8-8-8-8-8-8-|
D||------------------------------------------------------------------|
A||------------------------------------------------------------------|
E||------------------------------------------------------------------|
                                                                  
e||------------------------------------------------------------------|
B||--5-5-5-5-5-5-5-5-5-5-5-5-5-5-5-5-5-5-5-5-5-5-5-5-5-5-5-5-5-5-5-5-|
G||--7-7-7-7-7-7-7-7-7-7-7-7-7-7-7-7-7-7-7-7-7-7-7-7-7-7-7-7-7-7-7-7-|
D||------------------------------------------------------------------|
A||------------------------------------------------------------------|
E||------------------------------------------------------------------|
                                            
e||------------------------------------------||
B||--5-5-5-5-5-5-5-5-5-5-5-5-5-5-5-5/--------||
G||--5-5-5-5-5-5-5-5-5-5-5-5-5-5-5-5/--------||
D||------------------------------------------||
A||------------------------------------------||
E||------------------------------------------||

Ads

Ads

Ads

ADS