BROWSE ARTIST :    0-9 A  B  C  D  E  F  G  H  I  J  K  L  M  N  O  P  Q  R  S  T  U  V  W  X  Y  Z 
Wali Band - Dik
tab by : forthewing
Intro part

|-------------------------------------------7------7--
|--17/--17/---14/--12/--12/--9/--7--9--9-10---9-10----
|-----------------------------------------------------
|--18/--18/---14/--12/--12/--97--7--9-----------------
|-----------------------------------------------------
|-----------------------------------------------------

Solo part

|-----------------------------------------------------
|------4-5---4-5------4-5--7-7-7---5-5-5--4-----------
|----------6-----6--6---------------------------------
|---/6------------------------------------------------
|-----------------------------------------------------
|-----------------------------------------------------

|-------7-------------------7-9-----------------------------------
|---------10-9-7-9-9--9-10------10--------------------------------
|---7/9----------------------------11p9h8------------------8/11\8-
|-----------------------------------------11p9p7p6- 9/11\9--------
|-----------------------------------------------------------------
|-----------------------------------------------------------------

|--4h5p4-4--------------------------------------------
|----------7-5---4h5----------------------------------
|--------------6--------------------------------------
|-----------------------------------------------------
|-----------------------------------------------------
|-----------------------------------------------------

Coda part (melodi terakhir)

diiringi oleh kord
C#m  A B E A B E G#
C#m  A B E A F#m B G# C#m
F#m C#m

|-----------------------------------12----------------------------------
|---------------------------------x-------------------------------------
|------9-9-11p9-6------9--11p9-11b-x----11b--11p9-11-11--11p9h11--9-11--
|---/11-----------9/11--------------------------------------------------
|-----------------------------------------------------------------------
|-----------------------------------------------------------------------

|----------------------------------------------------------------
|--9-10-12-------------------------------------------------------
|----------11b-11p9h11-9-9---------------------------------------
|---------------------------11-9----9----------------------------
|--------------------------------11---11-9-7-9----9p7--9-7--9-7--
|----------------------------------------------------------------

|-----------------------------------------------------
|----------------5--7p5h7--9-9-9--7b--5-7-5---7/9-----
|------------4h6--------------------------------------
|--------4/6------------------------------------------
|--2-4-2----------------------------------------------
|-----------------------------------------------------

|---9-----9----9----9----9-------------19-------------
|--9---7-9--7-9--7-9--7-9---17b-17--19b--17------17---
|------------------------------------------18-16------
|-----------------------------------------------------
|-----------------------------------------------------
|-----------------------------------------------------

|------------------------------------------------------
|--17/--14--12p9---9-----------------------------------
|--16/--13------11---11p9----9-----------------------9~
|-------------------------11---11p9----9---------------
|-----------------------------------11---11p9p7--9/11--
|------------------------------------------------------

|------------------------------------------------------------------
|-------12-------12------------------------------------------------
|-11-9--11--9----11---------9----------------------------------6~\-
|-------------11----------9---11----9------------------------------
|--------------------9/11-------------9p7h9b---7p4--7/11-----------
|-------------------------------------------------7----------------
 
AUTO SCROLL
Scroll Speed
-
+
Font Size
-
+

RELATED VIDEO

No video available :(
Loading...