home | news | chart | store | advertise
BROWSE ARTIST :    0-9 A  B  C  D  E  F  G  H  I  J  K  L  M  N  O  P  Q  R  S  T  U  V  W  X  Y  Z 
Riff waktu lirik..

e|----------------------------------------|
B|----------------------------------------|
G|----------------------------------------|
D|-----5h7p5---5h7p5----------------------|
A|---7-------7-------7--------------------|
E|----------------------------------------|
                                           

Riff waktu reff

e|--------------------------------------------------------------------|
B|-10-8-7-8-5----4---------------7b1/2----71/2------------------------|
G|------------------5-4-7-4-5----------7-------5----4--2-4------------|
D|--------------------------------------------------------------------|
A|--------------------------------------------------------------------|
E|--------------------------------------------------------------------|


Solo:

e|--------------------------------------------------------------------|
B|-----------12-12-------12-12--------------------12-12---------------|
G|-----------12-12-------12-12--------12h14-------12-12---------------|
D|----12h14--------12h14--------12h14-------12h14---------------------|
A|--------------------------------------------------------------------|
E|--------------------------------------------------------------------|

e|--------------------------------------------------------------------|
B|--------------------------------------------------------------------|
G|----14br(full)-12h14p12--------------12----------------12-----------|
D|-------------------------12h14-------------12h14--------------------|
A|-------------------------------12h14-------------12h14--------------|
E|--------------------------------------------------------------------|

e|--------------------------------------------------------------------|
B|--------------------------------------------------------------------|
G|---12h14--------14br(full)-12h14p12----------12h14br-------12h14br--|
D|---------13-------------------------14-12h14---------12h14----------|
A|--------------------------------------------------------------------|
E|--------------------------------------------------------------------|

e|--------------------------------------------------------------------|
B|-----------------12-13-15-----------------------12--------12-12-----|
G|---12-14b(full)-----------14-12-----------------12--------12-12-----|
D|------------------------------------12h14-----------12h14-----------|
A|------------------------------------------12h14---------------------|
E|--------------------------------------------------------------------|

e|--------------------------------------------------------------------|
B|----------12-12------------------------12h15p12---------------------|
G|----------12-12-------12h14-14b(full)-----------14p12-14------------|
D|---12h14--------12h14-----------------------------------------------|
A|--------------------------------------------------------------------|
E|--------------------------------------------------------------------|

e|--------------------------------------------------------------------|
B|--------------------------------------------------------------------|
G|---12h14-12-12------------------------------------------------------|
D|--------------------------------------------------------------------|
A|--------------------------------------------------------------------|
E|--------------------------------------------------------------------|

Ads

Ads

Ads

ADS