BROWSE ARTIST :    0-9 A  B  C  D  E  F  G  H  I  J  K  L  M  N  O  P  Q  R  S  T  U  V  W  X  Y  Z 
 
Artis : Mulan Jameela
Song  : Wonder Woman
Tab   : forthewing

Solo guitar

|------------------------------
|------------------------------
|-----------7------------------
|-7b7b-5-7b---7b-5--7-5--------
|------------------------------
|------------------------------

|------------------------------
|------------------------------
|-----------7------------------
|-7b7b-5-7b---7b-5-------------
|------------------------------
|------------------------------

|----------------------------------------------15------------------------------------
|--------------------------------15--------------15-----15---15-15-15-15-15-15-15-15-
|--12------12-12----14b-14b--14b----14b-12-14b------14b------------------------------
|-x--12h14-------14------------------------------------------------------------------
|------------------------------------------------------------------------------------
|------------------------------------------------------------------------------------

|----------------------------------
|----------------------------------
|-12-12------12---14-12-14b-14b-12-
|------14-12-----------------------
|----------------------------------
|----------------------------------

|-----------------------------------
|--------------------------15-------
|-12-12------12---14-12-14b--14b-12-
|------14-12------------------------
|-----------------------------------
|-----------------------------------


|------------------------------------------------------------------
|------------------------------------------------------------------
|---------------12-14p12----12h14-------------12--12--12--12--12---
|-14p12---12h14----------14-------16p14h12h14b--14b-14b-14b-14b----
|------14----------------------------------------------------------
|------------------------------------------------------------------

|-----12---12--12--12-12-16b--15---
|--15b--15b-15b-15b-15--------15---
|----------------------------------
|----------------------------------
|----------------------------------
|---------------------------------- 
 

RELATED VIDEO