home | news | chart | store | advertise
BROWSE ARTIST :    0-9 A  B  C  D  E  F  G  H  I  J  K  L  M  N  O  P  Q  R  S  T  U  V  W  X  Y  Z 
Artist :ST-12 
Song   :Puspa


e|------------------------------------------------------
b|-----------------8-8---6p5-6--8-6-5---------8-6-5-5---
g|---7-9-7-9---7-9--------------------7---4h7-----------
d|-----------10-------------------------5---------------
a|------------------------------------------------------
e|------------------------------------------------------

e|----------------------------------------------------------
b|-12-13-12-13-------------------------13-15-17-17-17b-15---
g|----------------------------12-14-16----------------------
d|-------------------12-14-15-------------------------------
a|-------------12-14----------------------------------------
e|----------------------------------------------------------

e|---------------------------15----13----12-------------
b|-------13-------13--12-13----12----12----12---15-12---
g|-12-16----12-16----------------12----12----12------12-
d|------------------------------------------------------
a|------------------------------------------------------
e|------------------------------------------------------

e|---------------------------------------------
b|-13p12--12h13----13---15--15/17-13-----------
g|------14------/12---12-------------12\-9/10--
d|---------------------------------------------
a|---------------------------------------------
e|---------------------------------------------

Ads

Ads

Ads

CHORDFRENZY STORE