BROWSE ARTIST :    0-9 A  B  C  D  E  F  G  H  I  J  K  L  M  N  O  P  Q  R  S  T  U  V  W  X  Y  Z 
 
Intro:

e|-----------------------------------|
B|-----------------------------------|
G|77777777----------------99999999---|
D|77777777777777779999999999999999---|
A|55555555777777779999999977777777---|
E|--------5555555577777777-----------|
                                       
e|-----------------------------------|
B|-----------------------------------|
G|-----------------------------------|
D|77777777-55555555/77777777---------|
A|77777777-55555555/77777777---------|
E|55555555-33333333/55555555---------|

e|-----------------------------------|
B|-----------------------------------|
G|77777777----------------99999999---|
D|77777777777777779999999999999999---|
A|55555555777777779999999977777777---|
E|--------5555555577777777-----------|

e|-----------------------------------|
B|-----------------------------------|
G|-----------------------------------|
D|77777777-5~~-----------------------|
A|77777777-5~~-----------------------|
E|55555555-3~~-----------------------|

Reff:
                                     2X
e|-----------------------------------|
B|-----------------------------------|
G|44444444-----------------777766666-|
D|4444444444444444555555555777777777-|
A|2222222244444444555555555555544444-|
E|--------22222222333333333----------|

e|-----------------------------------|
B|-----------------------------------|
G|44444444---------------------------|
D|4444444444444444555555555555555555-|
A|2222222244444444555555555555555555-|
E|--------22222222333333333333333333-|

Verse II:

e|-----------------------------------|
B|-----------------------------------|
G|77777777----------------99999999---|
D|77777777777777779999999999999999---|
A|55555555777777779999999977777777---|
E|--------5555555577777777-----------|
                                       
e|-----------------------------------|
B|-----------------------------------|
G|-----------------------------------|
D|77777777-55555555/77777777---------|
A|77777777-55555555/77777777---------|
E|55555555-33333333/55555555---------|

e|-----------------------------------|
B|-----------------------------------|
G|77777777----------------99999999---|
D|77777777777777779999999999999999---|
A|55555555777777779999999977777777---|
E|--------5555555577777777-----------|

e|-----------------------------------|
B|-----------------------------------|
G|-----------------------------------|
D|77777777-5~~-----------------------|
A|77777777-5~~-----------------------|
E|55555555-3~~-----------------------|

Back To Reff

Solo I:
            3X
e|-----------| |----------------------|
B|-9-7-5-4-5-| |-9-7-9-9-7-5~~--------|
G|7----------| |7---------------------|
D|-----------| |----------------------|
A|-----------| |----------------------|
E|-----------| |----------------------|

Back to Verse II, Reff

Solo II
e|--------12^10~---------------------|
B|10h11h10------12/14-12-10101010----|
G|-----------------------------------|
D|-----------------------------------|
A|-----------------------------------|
E|-----------------------------------|

e|--------12^10~12-10---12121212-----|
B|10h11h10------------13-------------|
G|-----------------------------------|
D|-----------------------------------|
A|-----------------------------------|
E|-----------------------------------|

Back to Reff 

End on:

e|--------|
B|--------|
G|7~~-----|
D|7~~-----|
A|5~~-----|
E|--------|

Here`s The Lyric:

Bukan maksud hatiku
Acuhkan dirimu didepan mataku
Tapi ku `tak bisa lupakan
Saat dirimu membuat diriku terhina
      
Sakit hatiku
Remuk jantungku
`Tuk membencimu
Musnahkan cintaku

Bukan maksud hatiku
Redam senyumku saat kita bertemu
Tapi ku `tak bisa singkirkan
Enyapkan sikapmu diriku terluka 
 

RELATED VIDEO