home | news | chart | store | advertise
BROWSE ARTIST :    0-9 A  B  C  D  E  F  G  H  I  J  K  L  M  N  O  P  Q  R  S  T  U  V  W  X  Y  Z 
The Changcuters - Hijrah ke London (guitar solo) tab

start:
e|------------------------------------------|
B|------------------------------------------|
G|--7---6---4---7---6---4-------------------|
D|--7---6---4---7---6---4--7~~--------------|
A|--5---4---2---5---4---2--7~~--------------|
E|-------------------------5~~--------------|


1st solo:
e|-------------------------------------------------------------------------------|
B|-------------------------------------------------------------------------------|
G|--4/6-6--4~-6-4-6-6/7-7--6~-7-6-7-7/9-9-7~-9-7-9-10-10-10-10-9-7---------------|
D|-------------------------------------------------------------------------------|
A|-------------------------------------------------------------------------------|
E|-------------------------------------------------------------------------------|2X

E|-----------------9-------------------------------------------------------------|
B|--10--10--10--10--10-9--9--9--9-10-12--10-9------9-10-10-10-12-10-9------------|
G|--------------------------------------------11~~-------------------------------|
D|-------------------------------------------------------------------------------|
A|-------------------------------------------------------------------------------|
E|-------------------------------------------------------------------------------|

e|-----------------9-------------------------------------------------------------|
B|--10--10--10--10--10-9--9--9--9-10-12--10-9------9-10-10-10-12-10-12-12b14-----|
G|--------------------------------------------11~~-------------------------------|
D|-------------------------------------------------------------------------------|
A|-------------------------------------------------------------------------------|
E|-------------------------------------------------------------------------------|

2nd solo:
e|---------------------------------------------------------------------------------|
B|--9/10-10-9-10-9-10-10/12-12-10-12-10-12-12/14-14-12-14-12-14-15-15-15-15-14-12--|
G|---------------------------------------------------------------------------------|
D|---------------------------------------------------------------------------------|
A|---------------------------------------------------------------------------------|
E|---------------------------------------------------------------------------------|2X

e|---------------------------^--------------^--------------------------------------|
B|--------10-----10-----10-12b14r12-10-12-12b14-12-10-12-10---------------10--10---|
G|---9h11----9h11---9h11------------------------------------11-9-----9h11---11-----|
D|---------------------------------------------------------------9h11--------------|
A|---------------------------------------------------------------------------------|
E|---------------------------------------------------------------------------------|

e|---------------------------^--------------^--------------------^----------------------|
B|--------10-----10-----10-12b14r12-10-12-12b14-12-10-12-10-12-12b14-12-10-12------10---|
G|---9h11---9h11---9h11-------------------------------------------------------11-9------|
D|--------------------------------------------------------------------------------------|
A|--------------------------------------------------------------------------------------|
E|--------------------------------------------------------------------------------------|

/: slide up
b: bend
h: hammer on
r: release bend 
~: vibratO


by f3br1sevnfoldsupersynystergatescool182
email at synystergatesbaloonk182@gmail.com


Ads

Ads

Ads

CHORDFRENZY STORE