home | news | chart | store | advertise
BROWSE ARTIST :    0-9 A  B  C  D  E  F  G  H  I  J  K  L  M  N  O  P  Q  R  S  T  U  V  W  X  Y  Z 
by yunanmr.co.nr
                                                                      I Love U, Bibeh...                                                                        


                                                                                                                                                 The Changcuters
guitar 1

E||------------------------------------12-------------------|--------9-----9---------|-----------------------------|------------------------|
B||--12s---------------------------14------14--12--10~------|-------10----10---------|----------------10--12~------|-------12br--------L----|
G||---------------------------------------------------------|--------9-----9---------|---------9--11---------------|------------------------|
D||---------------------------------------------------------|------------------------|--9--11----------------------|------------------------|
A||---------------------------------------------------------|------------------------|-----------------------------|------------------------|
E||---------------------------------------------------------|------------------------|-----------------------------|------------------------|

-----------------------------|---------------------------|-------------------------------|------------------------------|-------------------------------|
---------12s--14--14s--15----|--14----12-----------------|---------10---------10----12b--|--L--12br----10-12-10~--------|--10--12--12br----10~---L------|
-----------------------------|--------------9s-11---9----|--9--11------9--11-------------|------------------------------|-------------------------------|
-----------------------------|---------------------------|-------------------------------|------------------------------|-------------------------------|
-----------------------------|---------------------------|-------------------------------|------------------------------|-------------------------------|
-----------------------------|---------------------------|-------------------------------|------------------------------|-------------------------------|

--------9-----9---------|-------10----10---9------|--------9-----9---------|---------------------12--|---------12---------12~------|--L------------9------|
-------10----10---------|-------10----10--10------|-------10----10---------|--------------8s--9------|--8s--9------8s--9-----------|--------------10------|
--------9-----9---------|--------9-----9---9------|--------9-----9---------|-------------------------|-----------------------------|---------------9------|
------------------------|-------------------------|------------------------|-------------------------|-----------------------------|----------------------|
------------------------|-------------------------|------------------------|-------------------------|-----------------------------|----------------------|
------------------------|-------------------------|------------------------|-------------------------|-----------------------------|----------------------|

-------10-----9---------|---------------------------|-------------------|-------10----10---9------|--------9-----9---------|---------------------12--|
-------10----10---------|----------------10~--------|-------------------|-------10----10--10------|-------10----10---------|--------------8s--9------|
--------9-----9---------|---------9--11-------------|-------------------|--------9-----9---9------|--------9-----9---------|-------------------------|
------------------------|--9--11--------------------|-------------------|-------------------------|------------------------|-------------------------|
------------------------|---------------------------|-------------------|-------------------------|------------------------|-------------------------|
------------------------|---------------------------|-------------------|-------------------------|------------------------|-------------------------|

---------12---------12~------|--L------------9------|-------10-----9--------|--L---------------5--7--|--5--8--7----5----5--7--|--5--8--7-------9------|
--8s--9------8s--9-----------|--------------10------|-------10----10--------|--L--------5s--7--7--7--|--7--7--7----7----7--7--|--7--7--7------10------|
-----------------------------|---------------9------|--------9-----9--------|--L---------------7--7--|--7--7--7----7----7--7--|--7--7--7-------9------|
-----------------------------|----------------------|-----------------------|------------------------|------------------------|-----------------------|
-----------------------------|----------------------|-----------------------|------------------------|------------------------|-----------------------|
-----------------------------|----------------------|-----------------------|------------------------|------------------------|-----------------------|

------9--10-----9--------|--------------------------------|------------------------------|------------------12------|--L----10--11--12----12--12--|
-----10--10----10--------|----------------10--10--10--12--|--10--13--12----10----10--12--|--10--13--12------12------|--L----10--11--12----12--12--|
------9---9-----9--------|---------9--11------11--11--11--|--11--11--11----11----11--11--|--11--11--11------13------|--L----11--12--13----13--13--|
-------------------------|--9--11-------------12--12--12--|--12--12--12----12----12--12--|--12--12--12------14------|-------12--13--14----14--14--|
-------------------------|--------------------------------|------------------------------|--------------------------|-----------------------------|
-------------------------|--------------------------------|------------------------------|--------------------------|-----------------------------|

--12--12--10--11--12----12--12--|--12--12--12--12--12--12-------|---------------9------|-----10p---9-----9---------|-----------------9--------|
--12--12--10--11--12----12--12--|--12--12--12--12--12--12-------|--------------10------|----------10----10---------|----------------10--------|
--13--13--11--12--13----13--13--|--13--13--13--13--13--13-------|---------------9------|-----------9-----9---------|---------9--11---9--------|
--14--14--12--13--14----14--14--|--14--14--14--14--14--14-------|----------------------|---------------------------|--9--11-------------------|
--------------------------------|-------------------------------|----------------------|---------------------------|--------------------------|
--------------------------------|-------------------------------|----------------------|---------------------------|--------------------------|

--------9-----9------------|---------------------------------|--------9-----9---------|-------10----10---9------|--------9-----9---------|
-------10----10-------12b--|---L--12br----10h-12p-10~--------|-------10----10---------|-------10----10--10------|-------10----10---------|
--------9-----9------------|---------------------------------|--------9-----9---------|--------9-----9---9------|--------9-----9---------|
---------------------------|---------------------------------|------------------------|-------------------------|------------------------|
---------------------------|---------------------------------|------------------------|-------------------------|------------------------|
---------------------------|---------------------------------|------------------------|-------------------------|------------------------|

---------------------12--|---------12---------12~------|--L------------9------|-------10-----9---------|---------------------------|--------9-----9---------|
--------------8s--9------|--8s--9------8s--9-----------|--------------10------|-------10----10---------|----------------10~--------|-------10----10---------|
-------------------------|-----------------------------|---------------9------|--------9-----9---------|---------9--11-------------|--------9-----9---------|
-------------------------|-----------------------------|----------------------|------------------------|--9--11--------------------|------------------------|
-------------------------|-----------------------------|----------------------|------------------------|---------------------------|------------------------|
-------------------------|-----------------------------|----------------------|------------------------|---------------------------|------------------------|

-------10----10---9------|--------9-----9---------|---------------------12--|---------12---------12~------|--L------------9------|-------10-----9--------|
-------10----10--10------|-------10----10---------|--------------8s--9------|--8s--9------8s--9-----------|--------------10------|-------10----10--------|
--------9-----9---9------|--------9-----9---------|-------------------------|-----------------------------|---------------9------|--------9-----9--------|
-------------------------|------------------------|-------------------------|-----------------------------|----------------------|-----------------------|
-------------------------|------------------------|-------------------------|-----------------------------|----------------------|-----------------------|
-------------------------|------------------------|-------------------------|-----------------------------|----------------------|-----------------------|

--L---------------5--7--|--5--8--7----5----5--7--|--5--8--7-------9------|------9--10-----9--------|--------------------------------|
--L--------5s--7--7--7--|--7--7--7----7----7--7--|--7--7--7------10------|-----10--10----10--------|----------------10--10--10--12--|
--L---------------7--7--|--7--7--7----7----7--7--|--7--7--7-------9------|------9---9-----9--------|---------9--11------11--11--11--|
------------------------|------------------------|-----------------------|-------------------------|--9--11-------------12--12--12--|
------------------------|------------------------|-----------------------|-------------------------|--------------------------------|
------------------------|------------------------|-----------------------|-------------------------|--------------------------------|

------------------------------|------------------12------|--L----10--11--12----12--12--|--12--12--10--11--12----12--12--|--12--12--12--12--12--12-------|
--10--13--12----10----10--12--|--10--13--12------12------|--L----10--11--12----12--12--|--12--12--10--11--12----12--12--|--12--12--12--12--12--12-------|
--11--11--11----11----11--11--|--11--11--11------13------|--L----11--12--13----13--13--|--13--13--11--12--13----13--13--|--13--13--13--13--13--13-------|
--12--12--12----12----12--12--|--12--12--12------14------|-------12--13--14----14--14--|--14--14--12--13--14----14--14--|--14--14--14--14--14--14-------|
------------------------------|--------------------------|-----------------------------|--------------------------------|-------------------------------|
------------------------------|--------------------------|-----------------------------|--------------------------------|-------------------------------|

---------------9------|--------9-----9---------|------------------------------|-------12----12---------|--------------------10~----|--L-----------------12~----|
--------------10------|-------10----10---------|----------------10--12~-------|-------12----12---------|---------------------------|---------------------------|
---------------9------|--------9-----9---------|---------9--11----------------|-------13----13---------|-----------10s--11---------|-----------12s--13---------|
----------------------|------------------------|--9--11-----------------------|-------14----14---------|---------------------------|---------------------------|
----------------------|------------------------|------------------------------|------------------------|---------------------------|---------------------------|
----------------------|------------------------|------------------------------|------------------------|---------------------------|---------------------------|

---------10---------12------------------|-------10-----9---------|-----------12-------------------|-----14--12------12~------14b--|
-------------------------------10~------|-------10----10---------|--12s--14------14--12--10~------|-------------14----------------|
--10s-11-----12s-13-----10s-11----------|--------9-----9---------|--------------------------------|-------------------------------|
----------------------------------------|------------------------|--------------------------------|-------------------------------|
----------------------------------------|------------------------|--------------------------------|-------------------------------|
----------------------------------------|------------------------|--------------------------------|-------------------------------|

---L--14br----12---------------|-------------------------------|----------------------------------|----------------------------------|
------------------14--12~------|-----------10----12----12br----|--Lbr-------12s--14--14s--15--14--|--12--14--12--10--12--10------10--|
-------------------------------|-----9h-11---------------------|----------------------------------|--------------------------11------|
-------------------------------|-------------------------------|----------------------------------|----------------------------------|
-------------------------------|-------------------------------|----------------------------------|----------------------------------|
-------------------------------|-------------------------------|----------------------------------|----------------------------------|

--------------------------------|-----------------------------------|----------------------------14--|------17--14--------------14--|
-------------10------10----12b--|---L--12br----10h-12p-10~------10--|--10--12--12--14--14--15----15--|--15------------15----15--15--|
--11--9--11------11-------------|-----------------------------------|--------------------------------|------------------------------|
--------------------------------|-----------------------------------|--------------------------------|------------------------------|
--------------------------------|-----------------------------------|--------------------------------|------------------------------|
--------------------------------|-----------------------------------|--------------------------------|------------------------------|

------17--14-----------------|------------------------------|----------------------------14--|------17--14--------------14--|------17--14------12------|
--15--------------12b----12--|--10--12--10------10------10--|--10--12--12--14--14--15----15--|--15------------15----15--15--|--15--------------12------|
-----------------------------|--------------11--------------|--------------------------------|------------------------------|------------------13------|
-----------------------------|------------------------------|--------------------------------|------------------------------|------------------14------|
-----------------------------|------------------------------|--------------------------------|------------------------------|--------------------------|
-----------------------------|------------------------------|--------------------------------|------------------------------|--------------------------|

--L----10--11--12----12--12--|--12--12--10--11--12----12--12--|--12--12--12--12--12--12-------|---------------9------|--------9-----9---------|
--L----10--11--12----12--12--|--12--12--10--11--12----12--12--|--12--12--12--12--12--12-------|--------------10------|-------10----10---------|
--L----11--12--13----13--13--|--13--13--11--12--13----13--13--|--13--13--13--13--13--13-------|---------------9------|--------9-----9---------|
-------12--13--14----14--14--|--14--14--12--13--14----14--14--|--14--14--14--14--14--14-------|----------------------|------------------------|
-----------------------------|--------------------------------|-------------------------------|----------------------|------------------------|
-----------------------------|--------------------------------|-------------------------------|----------------------|------------------------|

-------10----10---9------|--------9-----9---------|-------10----10---9------|--------9-----9---------|-------10----10---9------|--------9-----9---------|
-------10----10--10------|-------10----10---------|-------10----10--10------|-------10----10---------|-------10----10--10------|-------10----10---------|
--------9-----9---9------|--------9-----9---------|--------9-----9---9------|--------9-----9---------|--------9-----9---9------|--------9-----9---------|
-------------------------|------------------------|-------------------------|------------------------|-------------------------|------------------------|
-------------------------|------------------------|-------------------------|------------------------|-------------------------|------------------------|
-------------------------|------------------------|-------------------------|------------------------|-------------------------|------------------------|

-------10----10---9------|--------9-----9---------|-------10----10---9------|--------9-----9---------|-------10----10---9------|--------9-----9---------|
-------10----10--10------|-------10----10---------|-------10----10--10------|-------10----10---------|-------10----10--10------|-------10----10---------|
--------9-----9---9------|--------9-----9---------|--------9-----9---9------|--------9-----9---------|--------9-----9---9------|--------9-----9---------|
-------------------------|------------------------|-------------------------|------------------------|-------------------------|------------------------|
-------------------------|------------------------|-------------------------|------------------------|-------------------------|------------------------|
-------------------------|------------------------|-------------------------|------------------------|-------------------------|------------------------|

-------10----10---9------|--------9-----9---------|---L---9---9---9---9---9--5--7--|--5--8--7----5----5--7--|--5--8--7-------9------|------9--10-----9--------|
-------10----10--10------|-------10----10---------|---L--10--10--10--10--10--7--7--|--7--7--7----7----7--7--|--7--7--7------10------|-----10--10----10--------|
--------9-----9---9------|--------9-----9---------|---L---9---9---9---9---9--7--7--|--7--7--7----7----7--7--|--7--7--7-------9------|------9---9-----9--------|
-------------------------|------------------------|--------------------------------|------------------------|-----------------------|-------------------------|
-------------------------|------------------------|--------------------------------|------------------------|-----------------------|-------------------------|
-------------------------|------------------------|--------------------------------|------------------------|-----------------------|-------------------------|

--------------------------------|------------------------------|------------------12------|--L----10--11--12----12--12--|--12--12--12--12--12--5--5--7--|
----------------10--10--10--12--|--10--13--12----10----10--12--|--10--13--12------12------|--L----10--11--12----12--12--|--12--12--12--12--12--7--7--7--|
---------9--11------11--11--11--|--11--11--11----11----11--11--|--11--11--11------13------|--L----11--12--13----13--13--|--13--13--13--13--13--7--7--7--|
--9--11-------------12--12--12--|--12--12--12----12----12--12--|--12--12--12------14------|-------12--13--14----14--14--|--14--14--14--14--14-----------|
--------------------------------|------------------------------|--------------------------|-----------------------------|-------------------------------|
--------------------------------|------------------------------|--------------------------|-----------------------------|-------------------------------|

--5--8--7----5----5--7--|--5--8--7-------9------|------9--10-----9--------|---------------------------------|------------------------------|
--7--7--7----7----7--7--|--7--7--7------10------|-----10--10----10--------|-------------10------10--10--12--|--10--13--12----10----10--12--|
--7--7--7----7----7--7--|--7--7--7-------9------|------9---9-----9--------|------9--11------11--11--11--11--|--11--11--11----11----11--11--|
------------------------|-----------------------|-------------------------|--11-----------------12--12--12--|--12--12--12----12----12--12--|
------------------------|-----------------------|-------------------------|---------------------------------|------------------------------|
------------------------|-----------------------|-------------------------|---------------------------------|------------------------------|

------------------12------|--L----10--11--12----12--12--|--12--12--10--11--12----12--12--|--12--12--10--11--12----12--12--|--12--12--12--12--12--12-------|
--10--13--12------12------|--L----10--11--12----12--12--|--12--12--10--11--12----12--12--|--12--12--10--11--12----12--12--|--12--12--12--12--12--12-------|
--11--11--11------13------|--L----11--12--13----13--13--|--13--13--11--12--13----13--13--|--13--13--11--12--13----13--13--|--13--13--13--13--13--13-------|
--12--12--12------14------|-------12--13--14----14--14--|--14--14--12--13--14----14--14--|--14--14--12--13--14----14--14--|--14--14--14--14--14--14-------|
--------------------------|-----------------------------|--------------------------------|--------------------------------|-------------------------------|
--------------------------|-----------------------------|--------------------------------|--------------------------------|-------------------------------|

-----------12--------------0--|-----|-----|-----|-----||
--12s--14------14--12------2--|-----|-----|-----|-----||
---------------------------2--|-----|-----|-----|-----||
---------------------------2--|-----|-----|-----|-----||
---------------------------0--|-----|-----|-----|-----||
---------------------------0--|-----|-----|-----|-----||
                                                                      I Love U, Bibeh...                                                                        


                                                                                                                                                 The Changcuters
guitar 2

E||-------------------------|----------------------|-------------------------|----------------------|-----------------------|--------------------|
B||---------5--------2------|-------2----2---------|--3--2-------------------|----------------------|----------------3------|--L-----------------|
G||--4s--6-----6--4--2------|-------2----2---------|--------4--2--0--1~------|-------1----1------L--|--2----1--------2------|--L--------1--------|
D||------------------2------|-------2----2---------|-----------------2-------|-------2----2------L--|----------2-----0------|--L--------2--------|
A||-------------------------|----------------------|-----------------2-------|-------2----2------L--|-------------2--0------|--L--------2--------|
E||-------------------------|----------------------|-------------------------|----------------------|-----------------------|--------------------|

------------------------|----------------------|-----------------------|----------------------|----------------------|----------------------|
-----------------2------|-------2----2---------|--3----2--0-----2------|-------2----2---------|-------3----3--2------|-------2----2---------|
--L--2--1--------2------|-------2----2---------|-------------2--2------|-------2----2---------|-------2----2--2------|-------2----2---------|
--L--L--L--2-----2------|-------2----2---------|----------------2------|-------2----2---------|-------2----2--2------|-------2----2---------|
--L--L--L-----2---------|----------------------|-----------------------|----------------------|----------------------|----------------------|
------------------------|----------------------|-----------------------|----------------------|----------------------|----------------------|

------------------------|-----------------------|------------------------|----------------------|-----------------------|----------------------|
--3--2------------------|-----------------------|-----------------2------|-------3----2---------|--7----5--3--0--2------|-------2----2---------|
--------4--2--0--1------|-------L----2----1-----|-----------------2------|-------2----2---------|----------------2------|-------2----2---------|
-----------------2------|-------L------------2--|--------2--------2------|-------2----2---------|----------------2------|-------2----2---------|
-----------------2------|-------L---------------|--2--4------------------|----------------------|-----------------------|----------------------|
------------------------|-----------------------|-----------0--2---------|----------------------|-----------------------|----------------------|

----------------------|----------------------|------------------------|-----------------------|------------------------|-----------------------|
-------3----3--2------|-------2----2---------|--3--2------------------|-----------------------|-----------------2------|-------2----2----2--3--|
-------2----2--2------|-------2----2---------|--------4--2--0--1------|-------L----2----1-----|--------------1--2------|-------2----2----2--2--|
-------2----2--2------|-------2----2---------|-----------------2------|-------L------------2--|--------2--4-----2------|-------2----2----2--2--|
----------------------|----------------------|-----------------2------|-------L---------------|--2--4------------------|-----------------------|
----------------------|----------------------|------------------------|-----------------------|------------------------|-----------------------|

-----------------2--2--2--|--2--2--2--2--2--2--2--2--|--2--2--2--2--2---------|--------------------------|-----------------2--2--2--|--2--2--2--2--2--2--2--2--|
--2--2--3--2--2--3--3--3--|--3--3--3--3--3--3--3--3--|--3--3--3--3--3--2------|-----2--2--2--2--2--2--2--|--2--2--2--2--2--3--3--3--|--3--3--3--3--3--3--3--3--|
--2--2--2--2--2--2--2--2--|--2--2--2--2--2--2--2--2--|--2--2--2--2--2--2------|-----2--2--2--2--2--2--2--|--2--2--2--2--2--2--2--2--|--2--2--2--2--2--2--2--2--|
--2--2--2--2--2-----------|--------------------------|-----------------2------|-----2--2--2--2--2--2--2--|--2--2--2--2--2-----------|--------------------------|
--------------------------|--------------------------|------------------------|--------------------------|--------------------------|--------------------------|
--------------------------|--------------------------|------------------------|--------------------------|--------------------------|--------------------------|

--2--2--2--2--2---------|----------------------|-----------------------|-------------------------|---------------------|----------------------|
--3--3--3--3--3---------|----------------------|-----------------------|-------------------------|--------------2------|-------2----2---------|
--2--2--2--2--2--1------|--L----------1--------|--L----------1----1----|--1--1--1--1--1--1-------|--------------2------|-------2----2---------|
-----------------2------|--L----0--1--2--------|--L----0--1--2----2----|--2--2--2--2--2--2-------|--------------2------|-------2----2---------|
-----------------2------|--L----0--1--2--------|--L----0--1--2----2----|--2--2--2--2--2--2-------|---------------------|----------------------|
------------------------|----------------------|-----------------------|-------------------------|---------------------|----------------------|

----------------------|----------------------|------------------------|----------------------|----------------------|----------------------|
-------2----2---------|-------2----2---------|--3--2-----------2------|-------2----2---------|-------3----3--2------|-------2----2---------|
-------2----2---------|-------2----2---------|--------4--2--0--2------|-------2----2---------|-------2----2--2------|-------2----2---------|
-------2----2---------|-------2----2---------|-----------------2------|-------2----2---------|-------2----2--2------|-------2----2---------|
----------------------|----------------------|------------------------|----------------------|----------------------|----------------------|
----------------------|----------------------|------------------------|----------------------|----------------------|----------------------|

------------------------|-----------------------|------------------------|----------------------|-----------------------|----------------------|
--3--2------------------|-----------------------|-----------------2------|-------3----2---------|--7----5--3--0--2------|-------2----2---------|
--------4--2--0--1------|-------L----2----1-----|-----------------2------|-------2----2---------|----------------2------|-------2----2---------|
-----------------2------|-------L------------2--|--------2--------2------|-------2----2---------|----------------2------|-------2----2---------|
-----------------2------|-------L---------------|--2--4------------------|----------------------|-----------------------|----------------------|
------------------------|-----------------------|-----------0--2---------|----------------------|-----------------------|----------------------|

----------------------|----------------------|------------------------|-----------------------|------------------------|-----------------------|
-------3----3--2------|-------2----2---------|--3--2------------------|-----------------------|-----------------2------|-------2----2----2--3--|
-------2----2--2------|-------2----2---------|--------4--2--0--1------|-------L----2----1-----|--------------1--2------|-------2----2----2--2--|
-------2----2--2------|-------2----2---------|-----------------2------|-------L------------2--|--------2--4-----2------|-------2----2----2--2--|
----------------------|----------------------|-----------------2------|-------L---------------|--2--4------------------|-----------------------|
----------------------|----------------------|------------------------|-----------------------|------------------------|-----------------------|

-----------------2--2--2--|--2--2--2--2--2--2--2--2--|--2--2--2--2--2---------|--------------------------|-----------------2--2--2--|--2--2--2--2--2--2--2--2--|
--2--2--3--2--2--3--3--3--|--3--3--3--3--3--3--3--3--|--3--3--3--3--3--2------|-----2--2--2--2--2--2--2--|--2--2--2--2--2--3--3--3--|--3--3--3--3--3--3--3--3--|
--2--2--2--2--2--2--2--2--|--2--2--2--2--2--2--2--2--|--2--2--2--2--2--2------|-----2--2--2--2--2--2--2--|--2--2--2--2--2--2--2--2--|--2--2--2--2--2--2--2--2--|
--2--2--2--2--2-----------|--------------------------|-----------------2------|-----2--2--2--2--2--2--2--|--2--2--2--2--2-----------|--------------------------|
--------------------------|--------------------------|------------------------|--------------------------|--------------------------|--------------------------|
--------------------------|--------------------------|------------------------|--------------------------|--------------------------|--------------------------|

--2--2--2--2--2---------|----------------------|-----------------------|-------------------------|-----------------------|--------------------------|
--3--3--3--3--3---------|----------------------|-----------------------|-------------------------|--3----2--0-----2------|-----/7--5--3--2~---------|
--2--2--2--2--2--1------|--L----------1--------|--L----------1----1----|--1--1--1--1--1--1-------|-------------0--2------|--------------------------|
-----------------2------|--L----0--1--2--------|--L----0--1--2----2----|--2--2--2--2--2--2-------|----------------2------|--------------------------|
-----------------2------|--L----0--1--2--------|--L----0--1--2----2----|--2--2--2--2--2--2-------|-----------------------|--------------------------|
------------------------|----------------------|-----------------------|-------------------------|-----------------------|--------------------------|

-----------------------------|-------------------------|-------------------------|------------------------|-------------------------|-----------------------|
-----------------------------|-------------------------|-----------------3---2---|-----2------------------|-------------------------|-----3--2--3--2--------|
--------------2--4br----4br--|--L--4br-------2---------|--------2-----2----------|--4------4---2--4---2---|-----2--4--4br----2------|-----------------------|
--------2--4-----------------|--------------------4----|--2--4-----4-------------|------------------------|--4----------------------|-----------------------|
--2--4-----------------------|-------------------------|-------------------------|------------------------|-------------------------|-----------------------|
-----------------------------|-------------------------|-------------------------|------------------------|-------------------------|-----------------------|

-----------------------|----------------------|-------------------------|----------------------|-----------------------|--------------------|
-----------------------|-------2----2---------|--3--2-------------------|----------------------|----------------3------|--L-----------------|
-------------1--2------|-------2----2---------|--------4--2--0--1~------|-------1----1------L--|--2----1--------2------|--L--------1--------|
-------2--4------------|-------2----2---------|-----------------2-------|-------2----2------L--|----------2-----0------|--L--------2--------|
-----------------------|----------------------|-----------------2-------|-------2----2------L--|-------------2--0------|--L--------2--------|
-----------------------|----------------------|-------------------------|----------------------|-----------------------|--------------------|

------------------------|-----------------------|-----------------2--5--7--|--5--8--7----5----5--7--|--5--8--7---------------|-------------------------|
-----------------2------|-------2----2----2--3--|--2--2--3--2--2--3--7--7--|--7--7--7----7----7--7--|--7--7--7------7b----7--|--5--7--5-----5----------|
--L--2--1--------2------|-------2----2----2--2--|--2--2--2--2--2--2--7--7--|--7--7--7----7----7--7--|--7--7--7---------------|-----------6-------6--4--|
--L--L--L--2-----2------|-------2----2----2--2--|--2--2--2--2--2-----------|------------------------|------------------------|-------------------------|
--L--L--L-----2---------|-----------------------|--------------------------|------------------------|------------------------|-------------------------|
------------------------|-----------------------|--------------------------|------------------------|------------------------|-------------------------|

-----------------2--5--7--|--5--8--7----5----5--7--|--2--2--2--2--2---------|----------------------|-----------------------|-------------------------|
-----5--5--6--6--3--7--7--|--7--7--7----7----7--7--|--3--3--3--3--3---------|----------------------|-----------------------|-------------------------|
--6--------------2--7--7--|--7--7--7----7----7--7--|--2--2--2--2--2--1------|--L----------1--------|--L----------1----1----|--1--1--1--1--1--1-------|
--------------------------|------------------------|-----------------2------|--L----0--1--2--------|--L----0--1--2----2----|--2--2--2--2--2--2-------|
--------------------------|------------------------|-----------------2------|--L----0--1--2--------|--L----0--1--2----2----|--2--2--2--2--2--2-------|
--------------------------|------------------------|------------------------|----------------------|-----------------------|-------------------------|

---------------------|----------------------|----------------------|----------------------|----------------------|----------------------|----------------------|
--------------2------|-------2----2---------|-------2----2--2------|-------2----2---------|-------2----2--2------|-------2----2---------|-------2----2--2------|
--------------2------|-------2----2---------|-------2----2--2------|-------2----2---------|-------2----2--2------|-------2----2---------|-------2----2--2------|
--------------2------|-------2----2---------|-------2----2--2------|-------2----2---------|-------2----2--2------|-------2----2---------|-------2----2--2------|
---------------------|----------------------|----------------------|----------------------|----------------------|----------------------|----------------------|
---------------------|----------------------|----------------------|----------------------|----------------------|----------------------|----------------------|

----------------------|----------------------|----------------------|----------------------|----------------------|----------------------|
-------2----2---------|-------2----2--2------|-------2----2---------|-------2----2--2------|-------2----2---------|-------2----2--2------|
-------2----2---------|-------2----2--2------|-------2----2---------|-------2----2--2------|-------2----2---------|-------2----2--2------|
-------2----2---------|-------2----2--2------|-------2----2---------|-------2----2--2------|-------2----2---------|-------2----2--2------|
----------------------|----------------------|----------------------|----------------------|----------------------|----------------------|
----------------------|----------------------|----------------------|----------------------|----------------------|----------------------|

----------------------|----------------------|-----------------------|-----------------2--2--2--|--2--2--2--2--2--2--2--2--|--2--2--2--2--2---------|
-------2----2---------|-------2----2--2------|-------2----2----2--3--|--2--2--3--2--2--3--3--3--|--3--3--3--3--3--3--3--3--|--3--3--3--3--3--2------|
-------2----2---------|-------2----2--2------|-------2----2----2--2--|--2--2--2--2--2--2--2--2--|--2--2--2--2--2--2--2--2--|--2--2--2--2--2--2------|
-------2----2---------|-------2----2--2------|-------2----2----2--2--|--2--2--2--2--2-----------|--------------------------|-----------------2------|
----------------------|----------------------|-----------------------|--------------------------|--------------------------|------------------------|
----------------------|----------------------|-----------------------|--------------------------|--------------------------|------------------------|

--------------------------|-----------------2--2--2--|--2--2--2--2--2--2--2--2--|--2--2--2--2--2---------|------------------------|-----------------2--2--2--|
-----2--2--2--2--2--2--2--|--2--2--2--2--2--3--3--3--|--3--3--3--3--3--3--3--3--|--3--3--3--3--3---------|------------------------|-----------------3--3--3--|
-----2--2--2--2--2--2--2--|--2--2--2--2--2--2--2--2--|--2--2--2--2--2--2--2--2--|--2--2--2--2--2--1------|--L----------1----1--1--|--1--1--1--1--1--2--2--2--|
-----2--2--2--2--2--2--2--|--2--2--2--2--2-----------|--------------------------|-----------------2------|--L----0--1--2----2--2--|--2--2--2--2--2-----------|
--------------------------|--------------------------|--------------------------|-----------------2------|--L----0--1--2----2--2--|--2--2--2--2--2-----------|
--------------------------|--------------------------|--------------------------|------------------------|------------------------|--------------------------|

--2--2--2--2--2--2--2--2--|--2--2--2--2--2---------|--------------------------|-----------------2--2--2--|--2--2--2--2--2--2--2--2--|--2--2--2--2--2---------|
--3--3--3--3--3--3--3--3--|--3--3--3--3--3--2------|-----2--2--2--2--2--2--2--|--2--2--2--2--2--3--3--3--|--3--3--3--3--3--3--3--3--|--3--3--3--3--3---------|
--2--2--2--2--2--2--2--2--|--2--2--2--2--2--2------|-----2--2--2--2--2--2--2--|--2--2--2--2--2--2--2--2--|--2--2--2--2--2--2--2--2--|--2--2--2--2--2--1------|
--------------------------|-----------------2------|-----2--2--2--2--2--2--2--|--2--2--2--2--2-----------|--------------------------|-----------------2------|
--------------------------|------------------------|--------------------------|--------------------------|--------------------------|-----------------2------|
--------------------------|------------------------|--------------------------|--------------------------|--------------------------|------------------------|

------------------------|------------------------|------------------------|-------------------------|-----------------------9--|--L----------------|-------|
------------------------|------------------------|------------------------|-------------------------|---------5------------10--|--L----------------|-------|
--L----------1----1--1--|--1--1--------1----1----|--1--1--------1----1----|--1--1--1--1--1--1-------|--4s--6-----6--4-------9--|--L----------------|-------|
--L----0--1--2----2--2--|--2--2--0--1--2----2----|--2--2--0--1--2----2----|--2--2--2--2--2--2-------|----------------------11--|--L----------------|-------|
--L----0--1--2----2--2--|--2--2--0--1--2----2----|--2--2--0--1--2----2----|--2--2--2--2--2--2-------|----------------------12--|--L----------------|-------|
------------------------|------------------------|------------------------|-------------------------|----------------------12--|--L----------------|-------|

                                                                      I Love U, Bibeh...                                                                        


                                                                                                                                                 The Changcuters
extra guitar



E||-------|-------|-------|-------|-------|-------|-------|-------|-------|-------|-------|-------|-------|-------|-------|-------|-------|-------|-------|
B||-------|-------|-------|-------|-------|-------|-------|-------|-------|-------|-------|-------|-------|-------|-------|-------|-------|-------|-------|
G||-------|-------|-------|-------|-------|-------|-------|-------|-------|-------|-------|-------|-------|-------|-------|-------|-------|-------|-------|
D||-------|-------|-------|-------|-------|-------|-------|-------|-------|-------|-------|-------|-------|-------|-------|-------|-------|-------|-------|
A||-------|-------|-------|-------|-------|-------|-------|-------|-------|-------|-------|-------|-------|-------|-------|-------|-------|-------|-------|
E||-------|-------|-------|-------|-------|-------|-------|-------|-------|-------|-------|-------|-------|-------|-------|-------|-------|-------|-------|


-------|-------|-------|-------|-------|-------|-------|-------|-------|-------|-------|-------|-------|-------|-------|-------|-------|-------|-------|-------|
-------|-------|-------|-------|-------|-------|-------|-------|-------|-------|-------|-------|-------|-------|-------|-------|-------|-------|-------|-------|
-------|-------|-------|-------|-------|-------|-------|-------|-------|-------|-------|-------|-------|-------|-------|-------|-------|-------|-------|-------|
-------|-------|-------|-------|-------|-------|-------|-------|-------|-------|-------|-------|-------|-------|-------|-------|-------|-------|-------|-------|
-------|-------|-------|-------|-------|-------|-------|-------|-------|-------|-------|-------|-------|-------|-------|-------|-------|-------|-------|-------|
-------|-------|-------|-------|-------|-------|-------|-------|-------|-------|-------|-------|-------|-------|-------|-------|-------|-------|-------|-------|


-------|-------|-------|-------|-------|-------|-------|-------|-------|-------|-------|-------|-------|-------|-------|-------|-------|-------|-------|-------|
-------|-------|-------|-------|-------|-------|-------|-------|-------|-------|-------|-------|-------|-------|-------|-------|-------|-------|-------|-------|
-------|-------|-------|-------|-------|-------|-------|-------|-------|-------|-------|-------|-------|-------|-------|-------|-------|-------|-------|-------|
-------|-------|-------|-------|-------|-------|-------|-------|-------|-------|-------|-------|-------|-------|-------|-------|-------|-------|-------|-------|
-------|-------|-------|-------|-------|-------|-------|-------|-------|-------|-------|-------|-------|-------|-------|-------|-------|-------|-------|-------|
-------|-------|-------|-------|-------|-------|-------|-------|-------|-------|-------|-------|-------|-------|-------|-------|-------|-------|-------|-------|

-------|-------|-------|-------|-------|-------|-------|------------------------|----------------------|-----------------------|--------------------|
-------|-------|-------|-------|-------|-------|-------|--3--2------------------|----------------------|----------------3------|--L-----------------|
-------|-------|-------|-------|-------|-------|-------|--------4--2--0--1------|-------1----1---------|--2----1--------2------|--L--------1--------|
-------|-------|-------|-------|-------|-------|-------|-----------------2------|-------2----2---------|----------2-----0------|--L--------2--------|
-------|-------|-------|-------|-------|-------|-------|-----------------2------|-------2----2---------|-------------2--0------|--L--------2--------|
-------|-------|-------|-------|-------|-------|-------|------------------------|----------------------|-----------------------|--------------------|

------------------------|----------------------|-----|-------|-----------------------------|-------|--------------------10~----|--L-----------------12~----|
-----------------2------|-------3----2---------|-----|-------|----------------10--12~------|-------|---------------------------|---------------------------|
--L--2--1--------2------|-------2----2---------|-----|-------|---------9--11---------------|-------|-----------10s--11---------|-----------12s--13---------|
--L--L--L--2-----2------|-------2----2---------|-----|-------|--9--11----------------------|-------|---------------------------|---------------------------|
--L--L--L-----2---------|----------------------|-----|-------|-----------------------------|-------|---------------------------|---------------------------|
------------------------|----------------------|-----|-------|-----------------------------|-------|---------------------------|---------------------------|

---------10---------12------------------|-------10-----9---------|-------|-------|---------------9------|-------10-----9-------9--|---9---9---9---9---9--------|
-------------------------------10~------|-------10----10---------|-------|-------|--------------10------|-------10----10------10--|--10--10--10--10--10--------|
--10s-11-----12s-13-----10s-11----------|--------9-----9---------|-------|-------|---------------9------|--------9-----9-------9--|---9---9---9---9---9--------|
----------------------------------------|------------------------|-------|-------|----------------------|-------------------------|----------------------------|
----------------------------------------|------------------------|-------|-------|----------------------|-------------------------|----------------------------|
----------------------------------------|------------------------|-------|-------|----------------------|-------------------------|----------------------------|

-------|-------|-------|-------|-------|-------|-------|-------|-------|-------|-------|-------|-------|-------------------------|---------------------|-------|
-------|-------|-------|-------|-------|-------|-------|-------|-------|-------|-------|-------|-------|-------------------------|---------------------|-------|
-------|-------|-------|-------|-------|-------|-------|-------|-------|-------|-------|-------|-------|--4br------2-4-2~--------|--L------------------|-------|
-------|-------|-------|-------|-------|-------|-------|-------|-------|-------|-------|-------|-------|-------------------------|---------------------|-------|
-------|-------|-------|-------|-------|-------|-------|-------|-------|-------|-------|-------|-------|-------------------------|---------------------|-------|
-------|-------|-------|-------|-------|-------|-------|-------|-------|-------|-------|-------|-------|-------------------------|---------------------|-------|

-------|-------------------------|-------|-------|-------|--------------------------|--------------------|-------|-------|-------|-------|-------|-------|
-------|-------------------------|-------|-------|-------|--------------------------|--------------------|-------|-------|-------|-------|-------|-------|
-------|--------------1--2~------|-------|-------|-------|-----4b----4br----2~------|--L-----------------|-------|-------|-------|-------|-------|-------|
-------|--------2--4-------------|-------|-------|-------|--------------------------|--------------------|-------|-------|-------|-------|-------|-------|
-------|--2--4-------------------|-------|-------|-------|--------------------------|--------------------|-------|-------|-------|-------|-------|-------|
-------|-------------------------|-------|-------|-------|--------------------------|--------------------|-------|-------|-------|-------|-------|-------|


-------|-------|-------|-------|-------|-------|-------|-------|-------|-------|-------|-------|-------|-------|-------|-------||
-------|-------|-------|-------|-------|-------|-------|-------|-------|-------|-------|-------|-------|-------|-------|-------||
-------|-------|-------|-------|-------|-------|-------|-------|-------|-------|-------|-------|-------|-------|-------|-------||
-------|-------|-------|-------|-------|-------|-------|-------|-------|-------|-------|-------|-------|-------|-------|-------||
-------|-------|-------|-------|-------|-------|-------|-------|-------|-------|-------|-------|-------|-------|-------|-------||
-------|-------|-------|-------|-------|-------|-------|-------|-------|-------|-------|-------|-------|-------|-------|-------||


Ads

Ads

Ads

ADS