home | news | chart | store | advertise
BROWSE ARTIST :    0-9 A  B  C  D  E  F  G  H  I  J  K  L  M  N  O  P  Q  R  S  T  U  V  W  X  Y  Z 
Intro
e|-------------------------------------------| 
B|------------------------------------------| 
G|--7---6---4---7---6---4-------------------| 
D|--7---6---4---7---6---4--7~--------------| 
A|--5---4---2---5---4---2--7~--------------| 
E|-------------------------5~--------------|


Interlude  1
e|----------------------------------------------------------------------------------| 
B|----------------------------------------------------------------------------------| 
G|--5/7-7-5-7-5-7--7/8-8-7-8-7-8--8/10-10-8-10-8-10--10/11-11-11-11-11--10-8----| 
D|----------------------------------------------------------------------------------| 
A|----------------------------------------------------------------------------------| 
E|----------------------------------------------------------------------------------| 

e|----------------------------------------------------------------------------------| 
B|----------------------------------------------------------------------------------| 
G|--5/7-7-5-7-5-7--7/8-8-7-8-7-8--8/10-10-8-10-8-10--10/11-11-11-11-11--10-8----| 
D|----------------------------------------------------------------------------------| 
A|----------------------------------------------------------------------------------| 
E|----------------------------------------------------------------------------------|

E|--------------11-------------------------------------------------------------| 
B|--11/12-12--12--12--11-11-11-11--11-12-14-12-11-----11-12--12-12-14-12-11----| 
G|-------------------------------------------------13~-------------------------| 
D|-----------------------------------------------------------------------------| 
A|-----------------------------------------------------------------------------| 
E|-----------------------------------------------------------------------------| 

E|--------------11-----------------------------------------------------------------| 
B|--11/12-12--12--12--11-11-11-11--11-12-14-12-11-----11-12--12-12-14-12-14b18r14--| 
G|-------------------------------------------------13~-----------------------------| 
D|---------------------------------------------------------------------------------| 
A|---------------------------------------------------------------------------------| 
E|---------------------------------------------------------------------------------| 


Interlude 2
e|---------------------------------------------------------------------------------| 
B|--9/10-10-9-10-9-10-10/12-12-10-12-10-12-12/14-14-12-14-12-14-15-15-15-15-14-12--| 
G|---------------------------------------------------------------------------------| 
D|---------------------------------------------------------------------------------| 
A|---------------------------------------------------------------------------------| 
E|---------------------------------------------------------------------------------|

e|---------------------------------------------------------------------------------| 
B|--9/10-10-9-10-9-10-10/12-12-10-12-10-12-12/14-14-12-14-12-14-15-15-15-15-14-12--| 
G|---------------------------------------------------------------------------------| 
D|---------------------------------------------------------------------------------| 
A|---------------------------------------------------------------------------------| 
E|---------------------------------------------------------------------------------|

e|---------------------------------------------------------------------------------| 
B|---------10----10-----10-12b14r12-10-12-12/14-12-10-12-10----------------10--10--| 
G|-9h11-11---9h11---9h11------------------------------------11-9------9h11---11----| 
D|----------------------------------------------------------------9h11-------------| 
A|---------------------------------------------------------------------------------| 
E|---------------------------------------------------------------------------------| 

e|-----------------------------------------------------------------------------------| 
B|-----10-----10-----10-12b14r12-10-12-12/14-12-10-12-10-12-12/14-12-10-12------10---| 
G|-9h11---9h11---9h11------------------------------------------------------11-9------| 
D|-----------------------------------------------------------------------------------| 
A|-----------------------------------------------------------------------------------| 
E|-----------------------------------------------------------------------------------|

/: slide up 
b: bend 
h: hammer on 
r: release bend  
~: vibrate


By : Tedja Agiasa Wardaya
e-mail : tzaw1407@Gmail.com
FS: tzaw1407@yahoo.com

Enjoy this tab!!!
kritik n saran mail aja...

Ads

Ads

Ads

ADS