BROWSE ARTIST :    0-9 A  B  C  D  E  F  G  H  I  J  K  L  M  N  O  P  Q  R  S  T  U  V  W  X  Y  Z 
 
Guitar Solo

d||-------------------------------------------------------------------||
A||-------------------------------------------------------------------||
F||-------------------------------------------------------------------||
C||------------2-4-5-5/7--5-4---1---1-2---9-7-9----7-5-7--7-7/9-5-----||
G||----2-3-3/5--------------------2-------------5---------------------||
D||--3----------------------------------------------------------------||

d||---------------------------------------------------------------------------------||
A||----------------------15-13-12~-12-15/17--12-12-10-10~--10-12-13-15/17-15/17-15~-||
F||-12~---11-12-12/14-12------------------------------------------------------------||
C||---------------------------------------------------------------------------------||
G||---------------------------------------------------------------------------------||
D||---------------------------------------------------------------------------------||

d||-------------------------------------------------------------||
A||-------------------------------------------------------------||
F||----------14-12/14-14/16-12--11-12----4-5-5/7-/16-/16~-14~---||
C||-5-7-7/9-----------------------------------------------------||
G||-------------------------------------------------------------||
D||-------------------------------------------------------------||

d||-------------------------------------------------------------------------------------12-14/15-14/15-14~-||
A||-------------------------------------------------15-14/15-13-12h13-10-12/13~---13-15--------------------||
F||-9-11-12-9-12--16--16p14-14p12-12p11-11p19-9p7----------------------------------------------------------||
C||--------------------------------------------------------------------------------------------------------||
G||--------------------------------------------------------------------------------------------------------||
D||--------------------------------------------------------------------------------------------------------||

d||--3~---||
A||--3~---||
F||--0~---||
C||--0~---||
G||--2~---||
D||--3~---||


By : Aldo
Friendster/Yahoo:aldoputrasetia1992@yahoo.co.id


 
 

RELATED VIDEO