home | news | chart | store | advertise
BROWSE ARTIST :    0-9 A  B  C  D  E  F  G  H  I  J  K  L  M  N  O  P  Q  R  S  T  U  V  W  X  Y  Z 
Guitar Solo

e||------------------------------------------------------------------------------------||
b||-8-10--10b12r8-8/12------8-10--10b12r8-8/12------10-8-7-8-7----------10-8-7-8p7h8---||
G||-------------------------------------------------------------9--------------------9-||
D||------------------------------------------------------------------------------------||
A||------------------------------------------------------------------------------------||
E||------------------------------------------------------------------------------------||

e||-------------------------------------------------------------------------------------||
b||-10-12--12b13r12-12/13------10-12--12b13r12-12/15~~-----13-12---------------13-12~~--||
G||--------------------------------------------------------------12---------------------||
D||-----------------------------------------------------------------12-10-9 10----------||
A||-------------------------------------------------------------------------------------||
E||-------------------------------------------------------------------------------------||

e||-----------------------------------------------------------------------------||
b||-----------------------------------------------------------------------------||
G||--12--12\11--11\9--9\7--7/14/16\14\12------12/11--11\9--9--------------------||
D||--12----------------------------------------------------9---9-12-10~~~~------||
A||--10--10\-9---9\7--7\5--5/12/14\12\10------10/-9---9\7--7--------------------||
E||-----------------------------------------------------------------------------||

e||------------------------------------------------------------------||
b||------------------------------------------------------------------||
G||---------------12-12-11-11-9-9-7---12-12-11-11-9-9-12/14\12~~-----||
D||--------10-12-----------------------------------------------------||
A||--10h12-----------------------------------------------------------||
E||------------------------------------------------------------------||

e||---------------------------------------------------------||
b||-------------------------15------------17----------------||
G||-----7--------12---14/16------16p14p12---------14/16\14--||
D||-7/9----12/14--------------------------------------------||
A||---------------------------------------------------------||
E||---------------------------------------------------------||

BY : ALDO

Ads

Ads

Ads

CHORDFRENZY STORE