BROWSE ARTIST :    0-9 A  B  C  D  E  F  G  H  I  J  K  L  M  N  O  P  Q  R  S  T  U  V  W  X  Y  Z 
Intro: C  Am  G  F  G
e:|-12----12----12----12----12----12----12----12----|
B:|-13----13----13----13----13----13----13----13----|
G:|----12----12----12----12----12----12----12----12-|
D:|-------------------------------------------------|
A:|-------------------------------------------------|
E:|-------------------------------------------------|


e:|-12----12----12----12----13----13----12----12----|
B:|-13----13----13----13----13----13----13----13----|
G:|----12----12----12----12----12----12----12----12-|
D:|-------------------------------------------------|
A:|-------------------------------------------------|
E:|-------------------------------------------------|

e:|-12----12----12----12----13----13----12----12----|
B:|-13----13----13----13----13----13----13----13----|
G:|----14----14----14----14----14----14----14----14-|
D:|-------------------------------------------------|
A:|-------------------------------------------------|
E:|-------------------------------------------------|

e:|-10----10----10----10----10----10----10----10----|
B:|-13----13----13----13----12----12----13----13----|
G:|----12----12----12----12----12----12----12----12-|
D:|-------------------------------------------------|
A:|-------------------------------------------------|
E:|-------------------------------------------------|

e:|-12----12----12----12----10----10----------------|
B:|-------------------------------------13----12----|
G:|----12----12----12----12----12----12----12----12-|
D:|-------------------------------------------------|
A:|-------------------------------------------------|
E:|-------------------------------------------------|

Verse:
(Frank Lero)
e:|----------------------------------------|
B:|----------------------------------------|
G:|----------------------------------------|
D:|-/3~-2--0--2--0------3/5--2~--0-2/3/2~~-|
A:|-----------------3~~--------------------|
E:|----------------------------------------|

e:|----------------------------------------|
B:|----------------------------------------|
G:|------------------------------------xxx-|
D:|-----2/3~-0-----------2h3~-5~~--3-2-xxx-|
A:|-2h3-------------2h3~---------------xxx-|
E:|------------3~~-------------------------|



C                                      
Well when you go
                               Am
don`t ever think i`ll make you try to stay
                         G                  
and maybe when you get back
                             C           
I`ll be off to find another way
                     C                      
And after all this time that you still owe
                            Am             
you`re still the good for nothing i don`t know
                             G                  
so take your gloves and get out, better get out
             C                                 
while you can
                                              
Chorus:
F         G                                     
When you go
G/G#       A5    G5       F5          
would you even turn to say
F/E      F                        
i don`t love you
         G               
like i did
       C               
yesterday
                              
Verse:
Gtr I (Ray Toro)
e:|---------------------------------|
B:|-------5-------5-------5-------5-|
G:|---5-------5-------5-------5-----|
D:|-5---5---5---5---5---5---5---5---|
A:|---------------------------------|
E:|---------------------------------|

e:|---------------------------------|
B:|-------3-------3-------3-------3-|
G:|---5-------5-------5-------5-----|
D:|-5---5---5---5---5---5---5---5---|
A:|---------------------------------|
E:|---------------------------------|


e:|---------------------------------|
B:|-------3-------3-------3-------3-|
G:|---4-------4-------4-------4-----|
D:|-5---5---5---5---5---5---5---5---|
A:|---------------------------------|
E:|---------------------------------|

e:|---------------------------------|
B:|-------5-------5-------5-------5-|
G:|---5-------5-------5-------5-----|
D:|-5---5---5---5---5---5---5---5---|
A:|---------------------------------|
E:|---------------------------------|

Gtr II (Frank Lero)
e:|---------------------------------------------|
B:|---------------------------------------------|
G:|---5-7-5---5-7-5------5-9-7-5-9-7^(9)r7-5----|
D:|-5-------5-------5--5---------------------7~-|
A:|---------------------------------------------|
E:|---------------------------------------------|

e:|-----------------------------------|
B:|-----------------------------------|
G:|-----------------------------------|
D:|-/5-3-2-----/5-3------------2h3-5~-|
A:|--------3~-------3-5~--2h3~--------|
E:|-----------------------------------|

             C                     
sometimes i cry so hard from pleading
                      Am                  
so sick and tired of all the needless beating
                     G                         
but baby when they knock you down and out
                        C                 
it`s where you oughta stay
                    C               
and after all the blood that you still owe
                  Am                        
another dollar`s just another blow
                      G             
so fix your eyes and get up, better get up
           C                               
while you can
                                           
Chorus2: (as before)

Guitar solo: (chords as for chorus)
e:|---------------------------------------------------------|
B:|-10------10------10------10------10------13------13------|
G:|-12^(14)-12^(14)-12^(14)-12^(14)-12^(14)-16^(17)-16^(17)-|
D:|---------------------------------------------------------|
A:|---------------------------------------------------------|
E:|---------------------------------------------------------|

e:|---------------------------------------------------------------|
B:|-12------12------12------12------12------12--------------------|
G:|-14^(16)-14^(16)-14^(16)-14^(16)-14^(16)-14^(16)-14^(16)r14-12-|
D:|---------------------------------------------------------------|
A:|---------------------------------------------------------------|
E:|---------------------------------------------------------------|

e:|----------------------------------------------------------------|
B:|--8-------8------------9-------9-----12-10------10------10------|
G:|-10^(12)-10^(12)-9h11-11^(13)-11^(13)---12^(14)-12^(14)-12^(14)-|
D:|----------------------------------------------------------------|
A:|----------------------------------------------------------------|
E:|----------------------------------------------------------------|

e:|------------------------------------------15----13----12----12-|
B:|-12h13p10-12h3-15^(17)-15p13h15~-15-13-13----13----13----12----|
G:|---------------------------------------------------------------|
D:|---------------------------------------------------------------|
A:|---------------------------------------------------------------|
E:|---------------------------------------------------------------|

e:|----10----10-----------10--------------------|
B:|-12----12----12~--12-12----12/10-10-10~-8-8~-|
G:|---------------------------------------------|
D:|---------------------------------------------|
A:|---------------------------------------------|
E:|---------------------------------------------|

Chorus3: 
F         G                                  
When you go
G/G#       A5        G5        F5   
would you have the guts to say
F/E      F                        
i don`t love you
         G                
like i loved you
        C  C/B  A   G           
yesterday
         F              
i don`t love you
          G               
like i loved you
      C   C/B   A     G                
yesterday
         F             
i don`t love you
          G        
like i loved you
       C            
yesterday 

Ads

Ads

Ads

VISIT OUR VIDEOS ON YOUTUBE

RELATED VIDEO

loading...