home | news | chart | store | advertise
BROWSE ARTIST :    0-9 A  B  C  D  E  F  G  H  I  J  K  L  M  N  O  P  Q  R  S  T  U  V  W  X  Y  Z 
Tuning:GDAE

GIGI - Nakal
92
Intro
G||-------------------------|X4
D||-------8--7-------5--7---|
A||----5---------8\---------|
E||-------------------------|

Verse 
G|-----------3-2------------|X8
D|---------------3----------|
A|-3h5--5--5--------3---3---|
E|--------------------5---5-|

Pre-Verse
G|-----------------------|-------------------------|
D|-----5-----5-----5---5-|-----8-----8-----8-----8-|
A|--------5----------5---|--------8-----------8----|
E|---3-----------3-------|-6-------------6---------|

G|-------------------------|X2
D|-------8--7-------5--7---|
A|----5---------8\---------|
E|-------------------------|

back to Verse

Pre-Chorus 
G|-----------------------|-------------------------|
D|-----5-----5-----5---5-|-----8-----8-----8-----8-|
A|--------5----------5---|--------8-----------8----|
E|---3-----------3-------|-6-------------6---------|

G|-----------------------|-------------------------|
D|-----5-----5-----5---5-|-----8-----8-------------|
A|--------5----------5---|--------8----------------|
E|---3-----------3-------|-6-----------6-6-6-6-6-6-|

Chorus
G|---------------------------|---------------------------|
D|-----------5h7-------------|---------------------------|
A|-3h5---5-5-----------------|-------------4-4-4-4-0-4-0-|
E|---------------6-6---6-3-6-|-3-3---x-3-x---------------|

G|---------------------------|---------------------------|
D|-----------5h7-------------|---------------------------|
A|-3h5---5-5-----------------|-------------4-4-4-4-4-4-4-|
E|---------------6-6---6-3-6-|-3-3---x-3-x---------------|

Pre-Verse
G|----------------------------------|X4
D|-9-10--7-9-----9----------0-10h12-|
A|------------10---8-10-7-8---------|
E|----------------------------------|

back to Verse

Pre-Chorus
G|-----------------------|-------------------------|
D|-----5-----5-----5---5-|-----8-----8-----8-----8-|
A|--------5----------5---|--------8-----------8----|
E|---3-----------3-------|-6-------------6---------|

G|-----------------------|-------------------------|
D|-----5-----5-----5---5-|-----8-------------------|
A|--------5----------5---|-------8---0-1-0-2-0-3-0-|
E|---3-----------3-------|---6-----6---------------|

back to Chorus

Interlude
G|------------------------|------------------------|
D|------------------------|------------------------|
A|------------------------|------------------------|
E|------------------------|------------------------|

G|------------------------|------------------------|
D|------------------------|------------------------|
A|------------------------|------------------------|
E|------------------------|------------------------|

G|-----------------------------|X4
D|-9-10--7-9-----9-------------|
A|------------10----8-10--7-8--|
E|-----------------------------|

Pre-Chorus
G|-----------------------|-------------------------|X2
D|-----5-----5-----5---5-|-----8-----8-----8-----8-|
A|--------5----------5---|--------8-----------8----|
E|---3-----------3-------|-6-------------6---------|

G|-----------------------------------------------|
D|-----------------------------------------------|
A|-----------------------------------------------|
E|-3h5-----5-----x--3--x--3h5-----5-----x--3--x--|

G|-----------------------------------------------|
D|-----------------------------------------------|
A|-----------------------------------------------|
E|-7h8-----8-----x--7--x--7h8-----8-----x--8--x--|

G|-----------------------------------------------|
D|-----------------------------------------------|
A|-----------------------------------------------|
E|-3h5-----5-----x--3--x--3h5-----5-----x--3--x--|

G|-------------------------------|
D|-------------------------------|
A|-------------------------------|
E|-7h8-----8-----x--7------------|

Final Chorus
G|---------------------------|---------------------------|X5
D|-----------5h7-------------|---------------------------|
A|-3h5---5-5-----------------|-------------4-4-4-4-0-4-0-|
E|---------------6-6---6-3-6-|-3-3---x-3-x---------------|

G|---------------------------|---------------------------|
D|-----------5h7-------------|---------------------------|
A|-3h5---5-5-----------------|--------------4~-----------|
E|---------------6-6---6-3-6-|-3-3---x-3-x---------------|~Fin~

LEGEND:
\-slide down
h-hammer-on
x-mute 



Copyright BABOLAT (2009)
sENDER : `BraM` BABOLAT

Ads

Ads

Ads

CHORDFRENZY STORE