home | news | chart | store | advertise
BROWSE ARTIST :    0-9 A  B  C  D  E  F  G  H  I  J  K  L  M  N  O  P  Q  R  S  T  U  V  W  X  Y  Z 
Intro
e|------------------------|
B|------------------------|
D|------------------------|
G|------5----------7------|
A|----7----7-7-7-8---5-7--|
E|--8---------------------|

Bengi golek wedokan...
e|-----------------------------------------------------------------------------------|
B|-----------------------------------------------------------------------------------|
G|--9--7--5--4-4-4-4--9--7--7--10-10-10-10--9--7--5--4-4-4-4--9-9--9-9-9-9--7--7--7--|
D|-----------------------------------------------------------------------------------|
A|--7--5--3--2-2-2-2--7--5--5--8--8--8--8---7--5--3--2-2-2-2--7-7--7-7-7-7--5--5--5--|
E|-----------------------------------------------------------------------------------|

Kodoncodokudu...
e|----------------------------------------------------------------------|
B|----------------------------------------------------------------------|
G|--12-12--12-12-12-12--10-10--10-10-10-10--9-9--9-9-9-9--7-7--7-7-7-7--|
D|----------------------------------------------------------------------|
A|--10-10--10-10-10-10--8--8---8--8--8--8---7-7--7-7-7-7--5-5--5-5-5-5--|
E|----------------------------------------------------------------------|

e|-----------------------------------------------------------|
B|-----------------------------------------------------------|
G|--12-12--12-12-12-12--10-10--10-10-10-10--9-9--9-9-9-9--7--|
D|-----------------------------------------------------------|
A|--10-10--10-10-10-10--8--8---8--8--8--8---7-7--7-7-7-7--5--|
E|-----------------------------------------------------------|

e|----------------------------------------------------------------------|
B|----------------------------------------------------------------------|
G|--12-12--12-12-12-12--10-10--10-10-10-10--9-9--9-9-9-9--7-7--7-7-7-7--|
D|----------------------------------------------------------------------|
A|--10-10--10-10-10-10--8--8---8--8--8--8---7-7--7-7-7-7--5-5--5-5-5-5--|
E|----------------------------------------------------------------------|

e|---------------------------------------------------------------------------------|
B|---------------------------------------------------------------------------------|
G|--12-12--12-12-12-12--10-10--10-10-10-10--9-9--9-9-9-9--7-7--7-7-7-7--12--9--12--|
D|---------------------------------------------------------------------------------|
A|--10-10--10-10-10-10--8--8---8--8--8--8---7-7--7-7-7-7--5-5--5-5-5-5--10--7--10--|
E|---------------------------------------------------------------------------------|

Intro
e|---------------------------------------|
B|---------------------------------------|
G|---------------------------------------|
D|---------------------------------------|
A|--3---3-5-3-5-5/7~----3---3-5-7-7b8b7--|
E|----3-------------------3--------------|

Suara piano
e|--8-7-5------------------8-7-5-----------------|
B|--------8-6-5-6-5--------------8-6-5-6-5--8----|
G|-------------------5-7----------------------7--|
D|-----------------------------------------------|
A|-----------------------------------------------|
E|-----------------------------------------------|

Waktu pianonya main
e|--3-3---3-3---3-3---3-3---3-3---3-3---3-3--------------|
B|--5-5---3-3---5-5---3-3---5-5---3-3---5-5--------------|
G|--5-5---4-4---5-5---4-4---5-5---4-4---5-5---3p2h3p2h3--|
D|-------------------------------------------------------|
A|-------------------------------------------------------|
E|-------------------------------------------------------|

tangi le...
e|---------------------------|
B|---------------------------|
G|----------------3p2h3p2h3--|
D|--5-5---5-5-5--------------|
A|--5-5---5-5-5--------------|
E|--3-3---3-3-3--------------|

Setelah yg diatas
e|-----------------------------------|
B|-----------------------------------|
G|--5-----5-3-----3-2-----2-3-----3--|
D|-----5-------3-------2-------3-----|
A|-----------------------------------|
E|-----------------------------------|

e|-----------------------------------------------------------------|
B|--8-8-8-8-12-12-8-8--6-6-6-6-12-12-6-6--5-5-5-5-12-12-5-5--3-----|
G|-----------------------------------------------------------------|
D|--------------------------------------------------------------5--|
A|-----------------------------------------------------------------|
E|--------------------------------------------------------------3--|

Intro
e|-----------------------------------------------------------------------------------|
B|------1---1-----1---1-----1---1-----1---1-----1---1-----1---1-----1---1-----1---1--|
G|----0---0-----0---0-----0---0-----0---0-----0---0-----0---0-----0---0-----0---0----|
D|------------3----------------------------------------------------------------------|
A|--3-------------------3-------------------0-------------------3--------------------|
E|--------------------------------3-------------------1-------------------3----------|


Ads

Ads

Ads

ADS