home | news | chart | store | advertise
BROWSE ARTIST :    0-9 A  B  C  D  E  F  G  H  I  J  K  L  M  N  O  P  Q  R  S  T  U  V  W  X  Y  Z 
[intro] D

D
wajah merah berseri merona
D
melambaikan tangan untuk ikut bergoyang
D
meriah suara tepukannya
D
ketika musik mulai berdendang

D
tua muda ikutan bergoyang
D
merasakan dikmati dan resapi
D
menarilah tiada yang larang
D
asal jangan maen tonjok2an

[reff]
D
semuanya bernyanyi
D
hilangkan sunyi sepi
D
semuanya bernyanyi
D
lupakan sedih

D
pesta rakyat...
D
pesta rakyat...
D
pesta rakyat...
D
pesta rakyat...

[int] D G F-Em D G F-Em

(pake setting gitar Drop-D, lagu ni emang cuma maen2 di kord D,
ni gw kasi bonus, tab pas intro & lagunya)

[intro / reff]
E------------------------------
B------------------------------
G------------------------------
D--3-0-----0--3-0----0--3-0-0--
A--3-0--------3-0-------3-0----
D--3-0---0----3-0--0----3-0----

[lagu]
E---------------------------------------
B---------------------------------------
G---------------------------------------
D-0-0-0-0-0-------|----0-0-0-0-1-1-1-1--
A-0-0-0-0-0-3-3-0-|3x--0-0-0-0-1-1-1-1--
D-0-0-0-0-0-------|----0-0-0-0-1-1-1-1--

E---------------------------------------
B---------------------------------------
G---------------------------------------
D-0-0-0-0-0-------|----5-5-5-5-6-6-6-7--
A-0-0-0-0-0-3-3-0-|3x-------------------
D-0-0-0-0-0-------|---------------------


Ads

Ads

Ads

CHORDFRENZY STORE