home | news | chart | store | advertise
BROWSE ARTIST :    0-9 A  B  C  D  E  F  G  H  I  J  K  L  M  N  O  P  Q  R  S  T  U  V  W  X  Y  Z 
   G         D/F#          Em                           C   
e|---------------------------------------------------------------|
B|---------------------------------------------------------------|
G|----------------------4--7--4---4-----4--------------------5-7-|
D|-----------4h5p4---4h7--------7---------7-5-----5------5-7-----|
A|------5--7----------------------------------5h7----------------|
E|--5h7----------------------------------------------------------|
      
    C/B          Am                    G
e|---------------------------------------------------------------|
B|--5-7h8-7--55h7p5-----------------------11--13--15------------|
G|------------------7-----55-------------------------------------|
D|---------------------------99-77-55----12--13--15--15----------|
A|---------------------------------------------------------------|
E|---------------------------------------------------------------|
    
   D/F#        Em          C              C/B
e|---------------------------------------------------------------|
B|----11--13--11------------------------------------10-----------|
G|--------------12--4p2h-------7-9---9/12-----7-9----------------|
D|--12--13--12--------------5/9-9--9-------5/9-9--9--------------|
A|---------------------------------------------------------------|
E|---------------------------------------------------------------|
   
    Am 
e|---------------------------------------------------------------|
B|---------10b12-12-12-12-12-12r10-10-8h10p8---------------------|
G|-----7-9------------------------------------------------------|
D|--5/9-9-9------------------------------------------------------|
A|---------------------------------------------------------------|
E|---------------------------------------------------------------|
  
   G             D/F#          em 
e|---------------------------------------10----12----10----12----|
B|-----------------------12----------------12----12----12----12--|
G|--------9-12---------9---12---------12-----12----12----12----12|
D|-7/9-12-------7/9-12---------7/9-12----------------------------|
A|---------------------------------------------------------------|
E|---------------------------------------------------------------|
   
   C        C/B          Am     
e|-----------------------9/12-15-12---12-12-12-12-10-10----------|
B|-10b11-11-11-11r10-8----------------------------------10-10/12-|
G|---------------------------------------------------------------|
D|---------------------------------------------------------------|
A|---------------------------------------------------------------|
E|---------------------------------------------------------------|

  G           D/F#               Em              C 
e|------15---19--19--19--19--19-19-19-19-19-19---------22--------|
B|-12/15--15-------------------------------------15-19-----------|
G|---------------------------------------------------------------|
D|---------------------------------------------------------------|
A|---------------------------------------------------------------|
E|---------------------------------------------------------------|

   C/B            Am                         G  
e|-21-20-19-18-15-15/17-15-12---17-15-12-15-10-------------------|
B|---------------------------------------------------------------|
G|---------------------------------------------------------------|
D|---------------------------------------------------------------|
A|---------------------------------------------------------------|
E|---------------------------------------------------------------|

| b bend 
| r Release bend
| / slide up
| h hammer-on
| p pull-off
 
Solo in the middle of the song, after the 2nd refrain

   G            D/F#          Em
e|---------------------------------------------------------------|
B|-12-10-12-----10----10---------10------------------------------|
G|-----------------12---------12----11-12-9-11-------------------|
D|----------12-----------12--------------------12----------------|
A|------------------------------------------------10-------------|
E|---------------------------------------------------------------|
  
   C            C/B          Am 
e|---------------------------------------------------------------|
B|---------------------------------------------------------------|
G|-9-11-12-9------11-12------------------------------------------|
D|-------------12-------9--10-12-9-10----9-----------------------|
A|------------------------------------12---10-12-----------------|
E|---------------------------------------------------------------|
   
   D          Dsus       D            Dsus
e|---------------------------------------------------------------|
B|--------------------------------------10-----------------------|
G|------9----------11-9--------11-9--12----11-12-----------------|
D|--------12-----------------------------------------------------|
A|-9-12-------9-12--------9-12-----------------------------------|
E|---------------------------------------------------------------|

  Em  C         Em  C      Em D
e|---------------------------------------------------------------|
B|-12-13-13---12-13-13---12-11-11--------------------------------|
G|---------------------------------------------------------------|
D|---------------------------------------------------------------|
A|---------------------------------------------------------------|
E|---------------------------------------------------------------|

Ads

Ads

Ads

CHORDFRENZY STORE