home | news | chart | store | advertise
BROWSE ARTIST :    0-9 A  B  C  D  E  F  G  H  I  J  K  L  M  N  O  P  Q  R  S  T  U  V  W  X  Y  Z 
Intro  :  E  C#m  E  C#m

Verse 1

     A5          B5           A5          B5
|--------------------------------------------------------|
|--------------------------------------------------------|
|--------------------------------------------------------|
|----7--7--7--7--9------------7--7--7--7--9--------------|
|----7--7--7--7--9------------7--7--7--7--9--------------|
|----5--5--5--5--7------------5--5--5--5--7--------------|
        .  .                     .  .   

0o................    masih ada............


     A5          B5           A5          B5
|--------------------------------------------------------|
|--------------------------------------------------------|
|--------------------------------------------------------|
|----7--7--7--7--9------------7--7--7--7--9--------------|
|----7--7--7--7--9------------7--7--7--7--9--------------|
|----5--5--5--5--7------------5--5--5--5--7--------------|
        .  .                     .  .

Belenggu..........    ruang cinta............


     A5          B5           A5          B5
|--------------------------------------------------------|
|--------------------------------------------------------|
|--------------------------------------------------------|
|----7--7--7--7--9------------7--7--7--7--9--------------|
|----7--7--7--7--9------------7--7--7--7--9--------------|
|----5--5--5--5--7------------5--5--5--5--7--------------|
        .  .                     .  .

Meresap kini.......   didinding jaman........



     A5          B5           A5          B5
|--------------------------------------------------------|
|--------------------------------------------------------|
|--------------------------------------------------------|
|----7--7--7--7--9------------7--7--7--7--9--------------|
|----7--7--7--7--9------------7--7--7--7--9--------------|
|----5--5--5--5--7------------5--5--5--5--7--------------|
        .  .                     .  .           

Mencoba-coba........  kikis naluri...........



     A5          B5           A5          B5
|--------------------------------------------------------|
|--------------------------------------------------------|
|--------------------------------------------------------|
|----7--7--7--7--9------------7--7--7--7--9--------------|
|----7--7--7--7--9------------7--7--7--7--9--------------|
|----5--5--5--5--7------------5--5--5--5--7--------------|
        .  .                     .  .

Agitasi murahan..... yang ada lagi.............




     A5          B5           C#5        B5  C#5
|--------------------------------------------------------|
|--------------------------------------------------------|
|--------------------------------------------------------|
|----7--7--7--7--9------------6--6--6--6--4--6-----------|
|----7--7--7--7--9------------6--6--6--6--4--6-----------|
|----5--5--5--5--7------------4--4--4--4--2--4-----------|
        .  .                     .  .

Mohon hancurkan......palingkan muka..............0ough


(guitar same as above)
Verse 2

0o..memang dunia 
Buramkan...satu logika
Seolah-olah....hidup kita ini
Hanya ternilai sebatas rupiah
Dengarkan manusia(fill) yang terasa falsafah(fill)
Saat katanya..itu bukan dogma....0ough


        E       C#m        G#m  A
Reff :  Katakan 0o pada mama 0o
        E                 C#m          G#m  A 
        Cinta bukan hanya harta dan tahta
        E        C#m        G#m   A
        Pastikan 0o pada semua 0o
        E                     C#m     G#m 
        Hanya cinta yang sejukkan dunia.....


(*)

E                            C#m
Bukan itu mama....bukan itu papa
E                            C#m
Bukan itu mama....bukan itu papa



(guitar same as above)
Verse 3

0o..cukup siti nurbaya yang 
Mengalami pahitnya dunia
Hidupku kamu..dan mereka semua takkan 
Ada yang bisa memaksakan jalan...hidup yang kan kau tempuh
Dengarkan manusia(fill) yang terasa oleh falsafah(fill)
Saat katanya itu bukan dogma


Back to :  reff,intro



Solo guitar (full dist)


      A5        B5                       C#5

|-----------------------------12-------------------------------------|
|----b~~r12---/10--9--10------10--9--10--12--10--9------9--------|
|-------------------------------------------------------11-----------|
|--------------------------------------------------------------------|
|--------------------------------------------------------------------|
|--------------------------------------------------------------------|



                           B5     A5       B5 
|-------------------------------------------------------19-----------|
|-----------------------------------------/19b21--[21]------[21]r19--|
|-----11--9--8-------------------------------------------------------|
|---------------11--9--7---------------2-----------------------------|
|-------------------------7----2h4--------------------------------|
|--------------------------------------------------------------------|


                   |----play both with the low notes---|
             E5                    D#5
|--------------------------------------------------------------------|
|-----17h19--17~~--/17--16--17--19--17--16------16--17~~-------------|
|-------------------------------------------18-----------------------|
|--------------------------------------------------------------------|
|--------------------------------------------------------------------|
|--------------------------------------------------------------------|



     A5        B5        C#5       B5
|--------------------------------------------------------------------| 
|----14~-------16~-------19~-------14~-------------------------------| 
|----16b18~----18b20~----21b23~----16b18~----------------------------| 
|--------------------------------------------------------------------| 
|--------------------------------------------------------------------|
|--------------------------------------------------------------------| 


      A5
   
|----12h14p12h14p12h14p12h14p12h16p12\11h12p11-----------------------|
|-----------------------------------------------14-------------------|
|--------------------------------------------------------------------|
|--------------------------------------------------------------------|
|--------------------------------------------------------------------|
|--------------------------------------------------------------------|



     B5
   
|----12h14p12h14p12h14p12h14p12h16p12\11h12p11-----------------------|
|-----------------------------------------------14-------------------|
|--------------------------------------------------------------------|
|--------------------------------------------------------------------|
|--------------------------------------------------------------------|
|--------------------------------------------------------------------|



     
   
|----12h14p12h14p12h14p12h14p12h16p12\11h12p11-----------------------|
|-----------------------------------------------14-------------------|
|--------------------------------------------------------------------|
|--------------------------------------------------------------------|
|--------------------------------------------------------------------|
|--------------------------------------------------------------------|



     E5            D#5                 D5  C#5 C5

|----16p12--16p11--16------16----------------------------------------|
|----------------------14------12~~---/10--9-------------------------|
|----------------------------------------------12~~------------------|
|--------------------------------------------------------------------|
|--------------------------------------------------------------------|
|--------------------------------------------------------------------|




Back to :  reff (2x),(*) till end.

Ads

Ads

Ads

CHORDFRENZY STORE