home | news | chart | store | advertise
BROWSE ARTIST :    0-9 A  B  C  D  E  F  G  H  I  J  K  L  M  N  O  P  Q  R  S  T  U  V  W  X  Y  Z 
  C                G                  Am7
e--------------------------------------------------|
B------------------------------------------1-------|
G--------------------------------------------0---0-|
D---2---2h3-2---0------0-----0---0-----2-------2---|
A-3---3-------3------2---2h3---3-----0---0---------|
E------------------3-------------------------------|

  Em             F                C
e--------------------------------------------------|
B-------0----------------1------------1-----1------|
G-----0---0---0--------2---2---2-------------------|
D---2-------2-------3--------3------2---0h2---2----|
A---------------------------------3------------3---|
E-0--------------1---------------------------------|

  Am7          G
e----------------------------------1---------------|
B-------1-------------1------3-------3-------------|
G-----0---0---0---------0------0-------0-----------|
D---2-------2------0------0------0-----------------|  2x
A-0--------------2---------------------------------|
E--------------3-----------------------------------|

Setelah gitar 1:
gitar 2:


e----12-13-12-10-----8-10-8-7----------------------|
B--------------------------------/10-12-10---------|
G-12----12-12-10---9---9--8-7--------------12------|
D--------------------------------/10---------------|
A--------------------------------------------------|
E--------------------------------------------------|


e----10-12-10---------|
B-13----------13-12~--|
G---------------------|
D---------------------|
A---------------------|
E---------------------|

Verse :
gitar 1 : Seperti intro
gitar 2 : C G Am7 Em F C Am7 G



e-----12-13-12-10-----8-8-10-8-7-----------------------|
B-----------------------------------/10-12-10----------|
G--12----12-12-10---9-----9--8-7-------------12--------|
D-----------------------------------/10----------------|
A------------------------------------------------------|
E------------------------------------------------------|


e----10-12-10-----------10-13-10~---|
B-13----------13-12~-13-------------|
G-----------------------------------|
D-----------------------------------|
A-----------------------------------|
E-----------------------------------|


e-----12-12-13-12-10-10-12-10--8-8-10-8-7-7h8-7---------------------|
B-----------------------------------------------/10-12-10-----------|
G--12-------12-12-10---------9-----------------------------12-------|
D-------------------------------------------------------------------|
A-------------------------------------------------------------------|
E-------------------------------------------------------------------|


e----10-12-10-----------10-13-10~---|
B-13----------13-12~-13-------------|
G-----------------------------------|
D-----------------------------------|
A-----------------------------------|
E-----------------------------------|

 C G Am7 Em F C Am7 G


gitar 1: picking style

  C                G                  Am7
e--------------------------------------------------|
B------------------------------------------1-------|
G--------------------------------------------0---0-|
D---2---2h3-2---0------0-----0---0-----2-------2---|
A-3---3-------3------2---2h3---3-----0---0---------|
E------------------3-------------------------------|

  Em             F                C
e--------------------------------------------------|
B-------0----------------1------------1-----1------|
G-----0---0---0--------2---2---2-------------------|
D---2-------2-------3--------3------2---0h2---2----|
A---------------------------------3------------3---|
E-0--------------1---------------------------------|

  Am7          G
e-------------------3-|
B-------1----------3--|
G-----0---0---0---0---|
D---2-------2----0----|
A-0-------------2-----|
E--------------3------|

Ads

Ads

Ads

ADS