home | news | chart | store | advertise
BROWSE ARTIST :    0-9 A  B  C  D  E  F  G  H  I  J  K  L  M  N  O  P  Q  R  S  T  U  V  W  X  Y  Z 
Intro: Em A C D 2X
     Em     A       C      D
E|------|-------|-------|-------|
B|------|---1---|---1---|---3---|
G|------|---2---|-------|-------|
D|--2---|---2---|---2---|---4---|
A|--2---|-------|---3---|---5---|
E|------|-------|-------|-------|

Maen ikuti kunci di atas…OK!

        Em                  A
hatiku bimbang namun tetap pikirkanmu
    C                D
Selalu slalu dalam hatiku
       Em             A
kumelangkah sejauh apapun itu
    C                D
Selalu kau didalam hatiku


Bass And guitar play:
   Em     A       C        D
AaaaAa...AaaAa.. AAaa.... AaaaAa


        Em                A
ku berjalan berjalan memutar waktu
     C                 D
Berharap temukan sisa hatimu
        Em               A
mengertilah kuingin engkau begitu
     C                  D
Mengerti kau didalam hatiku

REFF:
         G             D
tak bisakah kau menungguku
       Em                D
hingga nanti tetap menunggu
         G             D
tak bisakah kau menuntunku
     Em             D
menemani dalam hidupku

Solo:





e----------------------------------------------------------------|
B—10s12-12-------------------------------------------------------|
G----------12-12-11s12-12-11-7-7s9-9-7-7s11-9-7------------------|
D----------------------------------------------------------------|
A----------------------------------------------------------------|
E----------------------------------------------------------------|


----------12--10---------------------------------------------------------|
-10s12-12--------12-10s12-10s12-12-10------------------------------------|
--------------------------------------12-12-12-11s12-12-11-7-------------|
-------------------------------------------------------------------------|
-------------------------------------------------------------------------|
-------------------------------------------------------------------------|
s= slide


        Em                A
ku berjalan berjalan memutar waktu
     C                  D
Berharap temukan sisa hatimu
        Em               A
mengertilah kuingin engkau begitu
     C                  D
mengerti kau didalam hatiku

REFF

Em D C D 2X

 Em
OooOOooooooooooO
        A             E
tak bisakah kau menungguku
        F#              Em
hingga nanti tetap menunggu
         A             E
tak bisakah kau menuntunku
     F#             Em
menemani dalam hidupku..woop

Em D C D 2X

Kritik n saran silahakan testi ke fs gue decki@akatsuki.cfp
selamat mencoba...^_^ thanks buat chordfrenzy

Ads

Ads

Ads

CHORDFRENZY STORE