BROWSE ARTIST :    0-9 A  B  C  D  E  F  G  H  I  J  K  L  M  N  O  P  Q  R  S  T  U  V  W  X  Y  Z 
HARI YANG CERAH UNTUK JIWA YANG SEPI
INTRO Cm7 G Cm7

E------------------------------------------------------|
B-8-8-8-5-5-5-10-10-10-12-12-12-10-10-10-8-8-8---------|
G------------------------------------------------------|  2X
D------------------------------------------------------|  
A------------------------------------------------------|
E------------------------------------------------------|


E------------------------------------------------------|
B-8-8-7-8-10-8-8-8-7-8-10-8-7-7-5-8-7------------------|
G-------------------------------------9-9-11-7---------| 
D------------------------------------------------------|  
A------------------------------------------------------|
E------------------------------------------------------|


E-------12-12----------------------10----12----14----16-----17-|
B12-15-------15-12-10-12-10-8---8----10----12----14----16-----
G--------------------------------------------------------------|
D--------------------------------------------------------------|  
A--------------------------------------------------------------|
E--------------------------------------------------------------|

thanks kalo ada meleset cuma yang di ujung2 heheheheh
maen nya ambil dengariin lagu yah..thanks

Ads

Ads

Ads

loading...