BROWSE ARTIST :    0-9 A  B  C  D  E  F  G  H  I  J  K  L  M  N  O  P  Q  R  S  T  U  V  W  X  Y  Z 
MY FIRST TAB
(YNK LAEN NYUSUL TAR LGE)
INTRO:
   T T T T T T T T
E|-------------------------------
B|-------------------------------
G|-------------------------------
D|-9-8-7-6-5-4-2-0---------------(TREMOLO PICKING)
A|-------------------------------
E|-------------------------------



E|---------------------------------
B|---------------------------------
G|---------------------------------
D|----3-----3----------------------
A|-5-----5-----5--4----------------
E|---------------------------------

E|--------------------------------------
B|--------------------------------------
G|--------------------------------------
D|-2------------------------------------
A|-2------------------------------------
E|-0-3-4-5-5-5-4------------------------

E|--------------------------------------
B|--------------------------------------
G|-2------------------------------------
D|-2------------------------------------
A|-0-3-4-5-5-5-4------------------------
E|--------------------------------------



Bagian solonya:
E|-----------------------
B|-15-14-13---------+---13--
G|----------16-15-16-12---12
D|--------------------------(2X)
A|-----------------------
E|-----------------------

E|------------------------------
B|-17-16-15-------------15---------
G|----------16-15-16-12---14-------(2x)
D|-------------------------------
A|-----------------------------
E|------------------------------

E|------------------------------------------------------------------------
B|-17-16-15--15-14-13--15-14-13--15-14-13-15-14-13-15-14-13-15-14-13------
G|------------------------------------------------------------------------
D|------------------------------------------------------------------------
A|------------------------------------------------------------------------
E|------------------------------------------------------------------------


tab ini belum sempurna. Jadi tolonk disempurnakan!!!
Copyright BABOLAT (2009)
sENDER : aSEnK BABOLAT
 
AUTO SCROLL
Scroll Speed
-
+
Font Size
-
+

RELATED VIDEO

No video available :(

OTHER CHORDS YOU'LL LIKE

Loading...
copyright © 2017 chordfrenzy.com | est.2006