BROWSE ARTIST :    0-9 A  B  C  D  E  F  G  H  I  J  K  L  M  N  O  P  Q  R  S  T  U  V  W  X  Y  Z 
Intro:
|-------------------------------|-----------------------------------|
|--------------13-12------------|-------------13-12---------15------|
|-----9h10-12--------12---7-7-9-|-----9h10-12-------12----12---12---|
|-------------------------------|-----------------------------------|
|-------------------------------|-----------------------------------|
|-------------------------------|-----------------------------------|

|-------------------------------|-----------------------------------|
|--------------13-12------------|-------------13-12-----------15~---|
|-----9h10-12--------12---7-7-9-|-----9h10-12-------12----12--------|
|-------------------------------|-----------------------------------|
|-------------------------------|-----------------------------------|
|-------------------------------|-----------------------------------|

C    Am         G
Ku tau ini jalan yang terbaik untuk kita
C                        Am           G
Meski harus sakitnya terasa menikam jiwa
  F      G      Em        A
Untuk berpisah denganmu dan hilangkan semua rasa yang ada
    F                   Fm
Tak pernah terpikir olehku

Reff:
C         G           Am
Lupakan saja cerita kita
    F        G        C
Yang mungkin pernah tertanam dalam hati
C             G            Am
Memang tak mudah berlari jauh
               F         Fm
Meninggalkan manis senyummu

Intro2
|-------------------------------|-----------------------------------|
|--------------13-12------------|-------------13-12---------15------|
|-----9h10-12--------12---7-7-9-|-----9h10-12-------12----12---12---|
|-------------------------------|-----------------------------------|
|-------------------------------|-----------------------------------|
|-------------------------------|-----------------------------------|

|-------------------------------|-----------------------------|
|--------------13-12------------|-----13p12--------15-13------|
|-----9h10-12--------12---7-7-9-|-----------12-10-------------|
|-------------------------------|-----------------------------|
|-------------------------------|-----------------------------|
|-------------------------------|-----------------------------|

C                   Am      G
Kau yang pernah singgah di hatiku memberi damai
      C           Am            F
Namun perbedaan antara kita memupuskan itu
  F G     Em              A
Kini kujauh darimu mencoba melawan hasrat yang ada
    F                    Fm
Sungguh tak terpikir olehku

Back to Reff 2X

Bridge
  F                C     F                   G
Tapi kusadar yang ada, hanya bayang semu dirimu..

Back to reff do=D
 
AUTO SCROLL
Scroll Speed
-
+
Font Size
-
+

RELATED VIDEO

No video available :(
Loading...